Oops, an error
Loading. Please wait.

Megaman 3 - Top Man Bass Tab

version 1
version 1

Whole song

Interactive

7 views 1 this week
no commentswrite comment
1 2 3 4 5
3 more votes to show rating
add to favorites
launch autoscroll
font size
0
reset
guitar tuner
Autoscroll
slow
fast
+/-
esc
set tempo
stop
Help us to improve Ultimate-Guitar.com Take our survey!
×
Author
Difficulty
intermediate
#----------------------------------PLEASE NOTE---------------------------------#
#This file is the author's own work and represents their interpretation of the #
#song. You may only use this file for private study, scholarship, or research. #
#------------------------------------------------------------------------------##

Megaman 3 (NES) - Topman...on bass!!!

Gtr I (B E A D G) - 'Untitled'

  Q=105
  Gtr I
  S S S S +E  S S S E. S S S S   S S S S +E  S S S E. S S S S
G|------------------------------|--------------------------------|
D|-------5-(5)-------5--6-7-----|-------5-(5)-------5--6-7-3-4---|
A|-8-7-5-------8-7-5--------5---|-8-7-5-------8-7-5--------------|
E|----------------------------8-|--------------------------------|
B|------------------------------|--------------------------------|


    S S S S S S S S S S S S S S S S   S S S S S S S S S S S S S S S S
||----------------------------------|----------------------------------|
||o---------------------------------|----------------------------------|
||--5-5-5-5-5-5-5-5-5-5-5-5-5-5-5-5-|-5-5-5-5-5-5-5-5-5-5-5-5-5-5-5-5--|
||o---------------------------------|----------------------------------|
||----------------------------------|----------------------------------|


  S S S S S S S S S S S S S S S S   S S S S S S S S S S E +S  S S S
|---------------------------------|------------------------------------|
|---------------------------------|---------------------------3-2------|
|-3-3-3-3-3-3-3-3-3-3-3-3-3-3-3-3-|-3-3-3-3-3-3-3-3-3-4-5-(5)-----5----|
|---------------------------------|------------------------------------|
|---------------------------------|------------------------------------|


  S S S S S S S S S S S S S S S S   S S S S S S S S S S S S S S S S
|---------------------------------|-----------------------------------|
|---------------------------------|-----------------5-5-5-5-5-5-5-5---|
|-5-5-5-5-5-5-5-5-5-5-5-5-5-5-5-5-|-5-5-5-5-5-5-5-5-------------------|
|---------------------------------|-----------------------------------|
|---------------------------------|-----------------------------------|


  S S S S S S S S S S S S S S S S   S S S S S S S S S S S S S S S S
|---------------------------------|-----------------------------------|
|---------------------------------|-----------------5-5-5-5-5-5-5-5---|
|-5-5-5-5-5-5-5-5-5-5-5-5-5-5-5-5-|-5-5-5-5-5-5-5-5-------------------|
|---------------------------------|-----------------------------------|
|---------------------------------|-----------------------------------|


  S S S S S S S S S S S S S S S S   S S S S S S S S S S S S S S S S
|---------------------------------|-----------------------------------|
|---------------------------------|-----------------5-5-5-5-5-5-5-5---|
|-5-5-5-5-5-5-5-5-5-5-5-5-5-5-5-5-|-5-5-5-5-5-5-5-5-------------------|
|---------------------------------|-----------------------------------|
|---------------------------------|-----------------------------------|


  S S S S S S S S S S S S S S S S   S S S S S S S S S S S S S S S S
|---------------------------------|-----------------------------------|
|---------------------------------|-----------------5-5-5-5-5-5-5-5---|
|-5-5-5-5-5-5-5-5-5-5-5-5-5-5-5-5-|-5-5-5-5-5-5-5-5-------------------|
|---------------------------------|-----------------------------------|
|---------------------------------|-----------------------------------|


  S S S S S S S S S S S S S S S S   H    Q  S S S S
|---------------------------------|--------------------|
|---------------------------------|--------------------|
|-5-5-5-5-5-5-5-5-5-5-5-5-5-5-4-3-|-----------3-1------|
|---------------------------------|---------------3----|
|---------------------------------|--------------------|


  H    Q  S S S S   S S S S S S S S S S S S S S S S
|-----------------|---------------------------------|
|-----------------|---------------------------------|
|-----------------|---------------------------------|
|-----------5-4-3-|-3-3-3-3-3-3-3-3-3-3-3-3-3-3-3-3-|
|-----------------|---------------------------------|


  S S S S S S S S E E E. S
|----------------------------||
|---------------------------o||
|-3-3-3-3-3-3-3-3---2-3--4---||
|-----------------5---------o||
|----------------------------||


Suggest correction
Give kudos to tab author, rate the tab!
1 2 3 4 5
comments
print report bad tab
guest
You may want to rate the tab now too:
select rating
Wanna post a correction for this tab? Suggest correction