Oops, an error
Loading. Please wait.

Metal Gear 2 - Zanzibar Breeze Tab

4 views 1 this week
no commentswrite comment
1 2 3 4 5
3 more votes to show rating
add to favorites
launch autoscroll
font size
0
reset
how to read this tab
guitar tuner
Autoscroll
slow
fast
+/-
esc
set tempo
stop
Help us to improve Ultimate-Guitar.com Take our survey!
×
Author
Song: Zanzibar Breeze
Artist: Konami Kukeiha Club
Game: Metal Gear 2: Solid Snake

Guitar 1
[Intro]
[Part 1] 
E|-------------------------------------------------|
B|-------------------------------------------------|
G|-------------------------------------------------|
D|----4--5--7--9-7-5-7-5-4----4--5--7--9-7-5-7-5-4-|
A|-7----------------------7------------------------|
E|-------------------------------------------------|

[Part 2]
E|-------------------------------------------------------|
B|-------------------------------------------------------|
G|---------------------------------------------------5-7-|
D|------------------------------------------------7-5----|
A|-7--5--7--8--7--5--3--5--3--5---7--5--7--8--7--5-------|
E|-------------------------------------------------------|

E|----------------------------------------------------------------------|
B|--------------------------------------------------------------8-10-11-|
G|---------------------------------------------------5-7--7-9-10--------|
D|------------------------------------------------7-5-------------------|
A|-7--5--7--8--7--5--3--5--3--5---7--5--7--8--7--5----------------------|
E|----------------------------------------------------------------------|

[Part 3]
E|---------------------------------------------------------------------------------|
B|---------------------------------------------------------------------------------|
G|---------------9-9-7-9-9-7-7---------------9-9-7-9-9-7-9-7--7--10--7--9--7--6--7-|
D|-------------7------------9--------------5----------------9----------------------|
A|-7-7-9-7-9-10-----------------5-5-7-5-7-8----------------------------------------|
E|--7----------------------------5-------------------------------------------------|

[Part 4]
E|---------------------------------------------------------------------------------------|
B|-----------------9-7-7-------------------------9-7-7-----------------------------------|
G|--------------------9-9-8-9-8-6-------------------9-9-8-9-8-6--7--7--10--7--9--7--6--7-|
D|---------------9-----------------------------7-----------------------------------------|
A|-9-9-11-9-11-12------------------7-7-9-7-9-10------------------------------------------|
E|--9-------------------------------7----------------------------------------------------|

[Part 5]
E|--------------------------------------------------------------------|
B|--------------------------------------------------------------------|
G|--------------------------------------------------------------------|
D|-------5-----7------9------9-7–5-4---------5------7------9------9-9-|
A|-7-5-7--7-5-7--7-5-7--7-5-7-----------7-5-7--7-5-7--7-5-7--7-5-7----|
E|--------------------------------------------------------------------|
                        
E|--------------------------------------------------------------------------|
B|--------------------------------------------------------------------------|
G|--------------------------------------------------------------------------|
D|------5------7------9------9-7-5-4------5------7------9------9-7-5-7-5-4--|
A|-7-5-7--7-5-7--7-5-7--7-5-7--------7-5-7--7-5-7--7-5-7--7-5-7-----------7-|
E|--------------------------------------------------------------------------|
 
[Part 2]               
E|-------------------------------------------------------|
B|-------------------------------------------------------|
G|---------------------------------------------------5-7-|
D|------------------------------------------------7-5----|
A|-7--5--7--8--7--5--3--5--3--5---7--5--7--8--7--5-------|
E|-------------------------------------------------------|

E|----------------------------------------------------------------------|
B|--------------------------------------------------------------8-10-11-|
G|---------------------------------------------------5-7--7-9-10--------|
D|------------------------------------------------7-5-------------------|
A|-7--5--7--8--7--5--3--5--3--5---7--5--7--8--7--5----------------------|
E|----------------------------------------------------------------------|

[Part 3]
E|---------------------------------------------------------------------------------|
B|---------------------------------------------------------------------------------|
G|---------------9-9-7-9-9-7-7---------------9-9-7-9-9-7-9-7--7--10--7--9--7--6--7-|
D|-------------7------------9--------------5----------------9----------------------|
A|-7-7-9-7-9-10-----------------5-5-7-5-7-8----------------------------------------|
E|--7----------------------------5-------------------------------------------------|

[Part 4]
E|---------------------------------------------------------------------------------------|
B|-----------------9-7-7-------------------------9-7-7-----------------------------------|
G|--------------------9-9-8-9-8-6-------------------9-9-8-9-8-6--7--7--10--7--9--7--6--7-|
D|---------------9-----------------------------7-----------------------------------------|
A|-9-9-11-9-11-12------------------7-7-9-7-9-10------------------------------------------|
E|--9-------------------------------7----------------------------------------------------|

[Part 5]
E|--------------------------------------------------------------------|
B|--------------------------------------------------------------------|
G|--------------------------------------------------------------------|
D|-------5-----7------9------9-7–5-4---------5------7------9------9-9-|
A|-7-5-7--7-5-7--7-5-7--7-5-7-----------7-5-7--7-5-7--7-5-7--7-5-7----|
E|--------------------------------------------------------------------|
                        
E|--------------------------------------------------------------------------|
B|--------------------------------------------------------------------------|
G|--------------------------------------------------------------------------|
D|------5------7------9------9-7-5-4------5------7------9------9-7-5-7-5-4--|
A|-7-5-7--7-5-7--7-5-7--7-5-7--------7-5-7--7-5-7--7-5-7--7-5-7-----------7-|
E|--------------------------------------------------------------------------|

[Part 2]
E|-------------------------------------------------------|
B|-------------------------------------------------------|
G|---------------------------------------------------5-7-|
D|------------------------------------------------7-5----|
A|-7--5--7--8--7--5--3--5--3--5---7--5--7--8--7--5-------|
E|-------------------------------------------------------|

E|----------------------------------------------------------------------|
B|--------------------------------------------------------------8-10-11-|
G|---------------------------------------------------5-7--7-9-10--------|
D|------------------------------------------------7-5-------------------|
A|-7--5--7--8--7--5--3--5--3--5---7--5--7--8--7--5----------------------|
E|----------------------------------------------------------------------|

Guitar 2:
[Intro]
[Part 1] 
E|-------------------------------------|
B|-------------------------------------|
G|-------------------------------------|
D|-------------------------------------|
A|-------------------------------------|
E|-5-5-5--5-5-5-5-5---5-5-5--5-5-5-5-5-|
x4

[Part 2]
E|---------------------------------------------------------------------------|
B|---------------------------------------------------------------------------|
G|---------------------------------------------------------------------------|
D|---------------------------------------------------------------------------|
A|---------------------------------------------------------------------------|
E|-5-5-5--5-5-5-5-5---5-5-5--5-5-5-5-5---3-3-3--3-3-3-3-3---3-3-3--3-3-3-3-3-|
x4

[Part 3]
E|---------------------------------------------------------------------------|
B|---------------------------------------------------------------------------|
G|---------------------------------------------------------------------------|
D|---------------------------------------------------------------------------|
A|---------------------------------------------------------------------------|
E|-5-5-5--5-5-5-5-5---5-5-5--5-5-5-5-5---3-3-3--3-3-3-3-3---3-3-3--3-3-3-3-3-|

E|---------------------------------------------------------------------------|
B|---------------------------------------------------------------------------|
G|---------------------------------------------------------------------------|
D|---------------------------------------------------------------------------|
A|---------------------------------------------------------------------------|
E|-7-7-7--7-7-7-7-7---7-7-7--7-7-7-7-7---5-5-5--5-5-5-5-5---3-3-3--3-3-3-3-3-|
x2

[Part 4]
E|-----------------------------------|
B|-----------------------------------|
G|-----------------------------------|
D|-----------------------------------|
A|-----------------------------------|
E|-5-5-5–5-5-5-5-5---5-5-5-5-5-5-5-5-|
x2

[Part 2]
E|---------------------------------------------------------------------------|
B|---------------------------------------------------------------------------|
G|---------------------------------------------------------------------------|
D|---------------------------------------------------------------------------|
A|---------------------------------------------------------------------------|
E|-5-5-5--5-5-5-5-5---5-5-5--5-5-5-5-5---3-3-3--3-3-3-3-3---3-3-3--3-3-3-3-3-|
x2

[Part 3]
E|---------------------------------------------------------------------------|
B|---------------------------------------------------------------------------|
G|---------------------------------------------------------------------------|
D|---------------------------------------------------------------------------|
A|---------------------------------------------------------------------------|
E|-5-5-5--5-5-5-5-5---5-5-5--5-5-5-5-5---3-3-3--3-3-3-3-3---3-3-3--3-3-3-3-3-|

E|---------------------------------------------------------------------------|
B|---------------------------------------------------------------------------|
G|---------------------------------------------------------------------------|
D|---------------------------------------------------------------------------|
A|---------------------------------------------------------------------------|
E|-7-7-7--7-7-7-7-7---7-7-7--7-7-7-7-7---5-5-5--5-5-5-5-5---3-3-3--3-3-3-3-3-|
x2

[Part 4]
E|-----------------------------------|
B|-----------------------------------|
G|-----------------------------------|
D|-----------------------------------|
A|-----------------------------------|
E|-5-5-5–5-5-5-5-5---5-5-5-5-5-5-5-5-|
x2

[Part 2]
E|---------------------------------------------------------------------------|
B|---------------------------------------------------------------------------|
G|---------------------------------------------------------------------------|
D|---------------------------------------------------------------------------|
A|---------------------------------------------------------------------------|
E|-5-5-5--5-5-5-5-5---5-5-5--5-5-5-5-5---3-3-3--3-3-3-3-3---3-3-3--3-3-3-3-3-|
x2 
Suggest correction
Give kudos to tab author, rate the tab!
1 2 3 4 5
comments
print report bad tab
guest
You may want to rate the tab now too:
select rating
Wanna post a correction for this tab? Suggest correction