Oops, an error
Loading. Please wait.

Metro - Last Light Theme tab

version 2
version 2

Whole song

Interactive

67,738 views 519 this week
3 commentsread comments
1 2 3 4 5
x 45
add to favorites
×
Save as Personal and add changes to this tab that will be seen only by you. Learn more ›
×
You can save this tab as Personal to edit and correct it or add notes. All changes will be seen only by you. Learn more »
launch autoscroll
font size
0
reset
how to read this tab
guitar tuner
edit
Autoscroll
slow
fast
+/-
esc
set tempo
stop
Author
Difficulty
intermediate
Well, this is my first tab. I hope this sounds good for you. 
For me it's really accurate. It's from the start of the song to the 0:50. 


NOTE: The first note it's a E and it's octave in the 2nd fret on D string. 
It sounds slighlty after the open E string. 
Basically, it's not at the same time. 
Hear the OST and you will understand me.

Rythm guitar

e|------------|-----------------------------|
B|------------|-----------------------------|
G|------------|-----------------------------|
D|---2--2/5---|--------4--------2--------1--|
A|------------|-----3--------2--------0-----|
E|--0---------|--5--------3--------2--------|

(Lead Guitar comes in this part)
e|------------|---------------------------------| 
B|------------|---------------------------------|
G|------------|---------------------------------|
D|---2--2/5---|--7--5--4----5--4--2----4-----1--|
A|------------|---------------------------------|
E|--0---------|--0----------3----------2--------|

e|-------------------------------------------------|
B|-------------------------------------------------|
G|-------------------------------------------------|
D|--2--------2--------2--------2--------2--------2-| And this, 
A|-------------------------------------------------| so on to
E|--0--0--0--0--0--0--0--0--0--0--0--0--0--0--0--0-| the end. Here finishes
                                                     rythm part.


Lead Guitar

e|------------|---------------------------------| 
B|---5--5/8---|--10--8--7----8--7--5----7----4--|
G|------------|---------------------------------|
D|------------|---------------------------------|
A|------------|---------------------------------|
E|------------|---------------------------------|


e|-------------------------|-------------------------|
B|--5--5--8--8--1--1--0--0-|--5--5--8--8--1--1--0----|
G|-------------------------|-----------------------0-|
D|-------------------------|-------------------------|
A|-------------------------|-------------------------|
E|-------------------------|-------------------------|


e|---------------------------|------------------------|
B|----5--8--8--10--10--7--7--|-8--8--5--5--7--7--4--4-|
G|---------------------------|------------------------|
D|--2------------------------|------------------------|
A|---------------------------|------------------------|
E|---------------------------|------------------------|

Thank you! Rate please!!
Tab by Maks Dutov



************************************

| /  Slide up

************************************

            
            
Suggest correction
Creating personal tab
Creating personal tab
You can edit any tab online and save it as your Personal.

You can edit, replace or remove any tab part or add personal notes – all changes will be seen only by you.

Personal tabs can be accessed anytime from any device, even offline.
Learn more »
comments
print report bad tab
3 comments total.
-2 reply
bioshocker911 10 Jun 29, 2015 05:19 AM

wheres the end, and what happened a lack of concentration fix it now!

+4 reply
heymanki 10 Feb 26, 2016 02:52 PM

e|12-15------------------12-15-17-14-15-14-12-14-11--|
B|------16-13-12-10-8-7------------------------------|

This should be the end of the song (as heard in the Mobius trailer for example)

guest
You may want to rate the tab now too:
select rating
Wanna post a correction for this tab? Suggest correction