Oops, an error
Loading. Please wait.

Metro 2033 - Guitar Song 1 tab

version 1
version 1

Whole song

Interactive

66,990 views 111 this week
4 commentsread comments
1 2 3 4 5
x 25
add to favorites
×
Save as Personal and add changes to this tab that will be seen only by you. Learn more ›
×
You can save this tab as Personal to edit and correct it or add notes. All changes will be seen only by you. Learn more »
launch autoscroll
font size
0
reset
how to read this tab
guitar tuner
edit
Autoscroll
slow
fast
+/-
esc
set tempo
stop
Author
Difficulty
intermediate
E|----------------------------------|----------------------------------|
B|-------0--1--1--0-----3----1-0--0-|-------0--1--1--0-----0-----------|
G|----2--------2-----2--2-----------|----2--------------2--1-----------|
D|-2--2--------0--------0---------0-|-2--2-----------------2-----------|
A|----0-----------------------------|----0-----------------2-----------|
E|----------------------------------|-------------1--------0-----------|

E|----------------------------------|----------------------------------|
B|-------0--1--1--0-----3----1-0--0-|-1--0-----------------0--1--------|
G|----2--------2-----2--2-----------|-2-----2--1--2--1--2--------2-----|
D|-2--2--------0--------0---------0-|-2--------2--------2--------------|
A|----0-----------------------------|-0--------2--------0--------------|
E|----------------------------------|----------------------------------|

       Asus2       Asus2      Gsus4/E     Gsus4/E      Dadd9       Dadd9       Eadd9       Eadd9
E|-------------------------------------------------------------------------------------------------|
B|-------0-----------0-----------1-----------1-----------3-----------3-----------0-----------0-----|
G|-----2---2-------2---2-------0---0-------0---0-------2---2-------2---2-------1---1-------1---1---|
D|---2-------2---2-------2---0-------0---0-------0---0-------0---0-------0---2-------2---2-------2-|
A|-0-----------0-----------------------------------------------------------------------------------|
E|-------------------------3-----------3-----------1-----------1-----------0-----------0-----------|
  \x2/


       Asus2       Asus2      Gsus4/E     Gsus4/E      Dadd9       Dadd9       Eadd9       Eadd9
E|-------0-----------0-----------0-----------0-----------0-----------0-----------0-----------0-----|
B|-------0-----------0-----------1-----------1-----------3-----------3-----------0-----------0-----|
G|-----2---2-------2---2-------0---0-------0---0-------2---2-------2---2-------1---1-------1---1---|
D|---2-------2---2-------2---0-------0---0-------0---0-------0---0-------0---2-------2---2-------2-|
A|-0-----------0-----------------------------------------------------------------------------------|
E|-------------------------3-----------3-----------1-----------1-----------0-----------0-----------|
  \x2/


           Asus2                   Gsus4/E                 Dadd9                    Eadd9
E|-0-----0-----0-----0-----0-----0-----0-----0-----0-----0-----0-----0-----0-----0-----0-----0-----|
B|-0-0-0-0-0-0-0-0-0-0-0-0-1-1-1-1-1-1-1-1-1-1-1-1-3-3-3-3-3-3-3-3-3-3-3-3-0-0-0-0-0-0-0-0-0-0-0-0-|
G|-2-2-2-2-2-2-2-2-2-2-2-2-0-0-0-0-0-0-0-0-0-0-0-0-2-2-2-2-2-2-2-2-2-2-2-2-1-1-1-1-1-1-1-1-1-1-1-1-|
D|-2-2-2-2-2-2-2-2-2-2-2-2-0-0-0-0-0-0-0-0-0-0-0-0-0-0-0-0-0-0-0-0-0-0-0-0-2-2-2-2-2-2-2-2-2-2-2-2-|
A|-0-0-0-0-0-0-0-0-0-0-0-0-x-x-x-x-x-x-x-x-x-x-x-x-0-0-0-0-0-0-0-0-0-0-0-0-2-2-2-2-2-2-2-2-2-2-2-2-|
E|-x-x-x-x-x-x-x-x-x-x-x-x-3-3-3-3-3-3-3-3-3-3-3-3-x-x-x-x-x-x-x-x-x-x-x-x-0-0-0-0-0-0-0-0-0-0-0-0-|
  \x2/

           Asus2                   Gsus4/E                   Dadd9                    Eadd9
E|-0-00000-0-0-0-00000-0-0-0-00000-0-0-0-00000-0-0-0-00000-0-0-0-00000-0-0-0-00000-0-0-0-00000-0-0-|
B|-0-00000-0-0-0-00000-0-0-1-11111-1-1-1-11111-1-1-3-33333-3-3-3-33333-3-3-0-00000-0-0-0-00000-0-0-|
G|-2-22222-2-2-2-22222-2-2-0-00000-0-0-0-00000-0-0-2-22222-2-2-2-22222-2-2-1-11111-1-1-1-11111-1-1-|
D|-2-22222-2-2-2-22222-2-2-0-00000-0-0-0-00000-0-0-0-00000-0-0-0-00000-0-0-2-22222-2-2-2-22222-2-2-|
A|-0-00000-0-0-0-00000-0-0-x-xxxxx-x-x-x-xxxxx-x-x-0-00000-0-0-0-00000-0-0-2-22222-2-2-2-22222-2-2-|
E|-x-xxxxx-x-x-x-xxxxx-x-x-3-33333-3-3-3-33333-3-3-x-xxxxx-x-x-x-xxxxx-x-x-0-00000-0-0-0-00000-0-0-|


           Asus2                     Gsus4/E                Dadd9             Eadd9        Asus2
E|0-00000-0-0-0-00000-0-0-0-00000-0-0-0-00000-0-0-0-00000-0-0-0-00000-0-0-0-00000-0-0-0-----0-----0|
B|0-00000-0-0-0-00000-0-0-1-11111-1-1-1-11111-1-1-3-33333-3-3-3-33333-3-3-0-00000-0-0-0-0-0-0-0-0-0|
G|2-22222-2-2-2-22222-2-2-0-00000-0-0-0-00000-0-0-2-22222-2-2-2-22222-2-2-1-11111-1-1-2-2-2-2-2-2-2|
D|2-22222-2-2-2-22222-2-2-0-00000-0-0-0-00000-0-0-0-00000-0-0-0-00000-0-0-2-22222-2-2-2-2-2-2-2-2-2|
A|0-00000-0-0-0-00000-0-0-x-xxxxx-x-x-x-xxxxx-x-x-0-00000-0-0-0-00000-0-0-2-22222-2-2-0-0-0-0-0-0-0|
E|x-xxxxx-x-x-x-xxxxx-x-x-3-33333-3-3-3-33333-3-3-x-xxxxx-x-x-x-xxxxx-x-x-0-00000-0-0-x-x-x-x-x-x-x|



************************************

| x  Dead note

************************************

            
            
Suggest correction
Creating personal tab
Creating personal tab
You can edit any tab online and save it as your Personal.

You can edit, replace or remove any tab part or add personal notes – all changes will be seen only by you.

Personal tabs can be accessed anytime from any device, even offline.
Learn more »
comments
print report bad tab
4 comments total. Showing first comments.
+1 reply
Gwipo 10 Nov 09, 2010 06:11 AM

Awesome work, thanks for the tab!

+1 reply
legojogge 10 Dec 31, 2010 05:48 AM

Thanks for you awesome work with the tabs!

+2 reply
deupiner 10 Apr 11, 2012 01:43 AM

i thank you very much guy!
this song is so powerful, i always wanted to play this song and now i can play it.
I thank you so much, thank you : )

guest
You may want to rate the tab now too:
select rating
Wanna post a correction for this tab? Suggest correction