Oops, an error
Loading. Please wait.

Metroid Prime - Menu Theme Tab

version 1
version 1

Whole song

Interactive

121 views 1 this week
1 commentread comment
1 2 3 4 5
2 more votes to show rating
add to favorites
launch autoscroll
font size
0
reset
how to read this tab
guitar tuner
Autoscroll
slow
fast
+/-
esc
set tempo
stop
Help us to improve Ultimate-Guitar.com Take our survey!
×
Author
I was looking around for the tab of this song, and all of the other tabs were just missing important parts or
wrong. I eventually found one on another site, so the credit goes to them. However, it too was missing the
intro, so if someone knows it I would like to know. I hope you like it though.

E|---------------------------------------------|
B|---------------------------------------------|
G|--------5-----------2------------------------|
D|7----5----2--3---2--------0-----3------------|
A|-----------------------4------3---0--3---2---|
E|---------------------------------------------|

E|---------------------------------------------|
B|---------------------------------------------|
G|--------5-----------2---------2---4--5----4--|
D|7----5----2--3---2--------0------------------|
A|-----------------------4---------------------|
E|---------------------------------------------|

  |-PM-|       |-PM-|
E|-----------------------------------------------|
B|-----------------------------------------------|
G|-----------------------------------------------|  x2
D|0--0-0-2-----0--0-0-2-----0--0-0-2--3-5--5-3-2-|  Repeat once
A|----------3------------3-----------------------|
E|-----------------------------------------------|

You would then do the intro bit again that I don't have, then go to the start all over again and repeat as
much as you want.
Suggest correction
Give kudos to tab author, rate the tab!
1 2 3 4 5
comments
print report bad tab
1 comment total.
0 reply
ballajoe010 22 Nov 01, 2016 11:19 AM

Note to self: bpm about 90

guest
You may want to rate the tab now too:
select rating
Wanna post a correction for this tab? Suggest correction