Oops, an error
Loading. Please wait.

Mick Gordon - At Dooms Gate 5 String Bass Tab bass

2,035 views 36 this week
5 commentsread comments
1 2 3 4 5
1 last vote to show rating
add to favorites
×
Save as Personal and add changes to this tab that will be seen only by you. Learn more ›
×
You can save this tab as Personal to edit and correct it or add notes. All changes will be seen only by you. Learn more »
launch autoscroll
font size
0
reset
guitar tuner
edit
Autoscroll
slow
fast
+/-
esc
set tempo
stop
Author
Difficulty
intermediate
About this tab version
Fixed wrong rythms in melody/head section. Was this info helpful? Yes No
Original Version:
https://www.youtube.com/watch?v=j05hzwQf8pA&index=27&list=PLsrNfWK9yL8ffGXJQh5_feBjwaMSd5gF9

This is a tab I have developed for Five string bass for the melody of At Doom's Gate from the 2016 
Id Software/Bethesda Productions video game Doom. This game features some heavy grinding lines and electronic
undertones with a sort of modernist vibe. Sorry if that sounds annoying and uppity, but I am studying for 
Music Education. Anyways, this song has some things you need to be aware of that make it a bit odd. For one, 
it has a very odd tuning to be playable for beginners. Tuning is:

DEADG

Yep. Kinda odd.It also uses some bends and vibrato, so watch out for that.
I'll probably rewrite this for BEADG tuning later, but this is the easiest way to play the song for fun. 

This song should be played with LOW TONE and HIGH DISTORTION and GAIN.

-------- = Quarter note (For those who know note durations)

[Intro (Kinda Messy)]

G|----------------------------------|--------------------------------|
D|----------------------------------|--------------------------------|
A|----------------------------------|--------------------------------|x3
E|----------------------------------|--------------------------------|
D|3-p0-----3-p0-----0-0-----0-0-----|3-p0-----3-p0----0-h3-h5-p0-h7--|

On 3rd Time:

G|----------------------------------|----------------------------------------|
D|----------------------------------|----------------------------------------|
A|----------------------------------|----------------------------------------|
E|----------------------------------|----------------------------------------|
D|3-p0-----3-p0-----0-0-----0-0-----|3-p0-----3-p0----0-h3-h5-p0-h7~~~~~~~~~~|


[Bass Melody: -------- Does NOT = Quarter note]

G|--------------------------------|------------------------------|
D|--------------------------------|------------------------------|
A|--------------------------------|--------------------------7~~~|x2
E|---b10----b8----b6----b4---5h6p5|---b10----b8----b6----b4--5~~~|
D|0-0---0-0---0-0---0-0---0-------|0-0---0-0---0-0---0-0---0-----|

[Repeated Intro]
G|----------------------------------|--------------------------------|
D|----------------------------------|--------------------------------|
A|----------------------------------|--------------------------------|x2
E|----------------------------------|--------------------------------|
D|3-p0-----3-p0-----0-0-----0-0-----|3-p0-----3-p0----0-h3-h5-p0-h7--|

[Return To Head]

G|--------------------------------|----------------------------------|
D|--------------------------------|-------------------------(7)~~~~~~|
A|--------------------------------|--------------------------7~~~~~~~|
E|---b10----b8----b6----b4---5h6p5|---b10----b8----b6----b4--5~~~~~~~|
D|0-0---0-0---0-0---0-0---0-------|0-0---0-0---0-0---0-0---0---------|

On last power chord, hold out the note (Fermata)
(7) = Optional 8 chord tone for 1-5-8 Triad

| /   Slide up
| \   Slide down
| h   Hummer-on
| p   Pull-off
| ~   Vibrato
| +   Harmonic
| x   Dead note
| b   Bend
| pb  Pre-bend
| br  Bend release
| pbr Pre-bend release
| brb Bend release bend
Suggest correction
Creating personal tab
Creating personal tab
You can edit any tab online and save it as your Personal.

You can edit, replace or remove any tab part or add personal notes – all changes will be seen only by you.

Personal tabs can be accessed anytime from any device, even offline.
Learn more »
Give kudos to tab author, rate the tab!
1 2 3 4 5
comments
print report bad tab
5 comments total. Showing first comments.
0 reply
CahsualStephen 109 Jun 08, 2016 07:38 PM, edited on July 28 2016, 01:00 am

I can do a rewrite of this for four string or BDADG tuning. If anybody wants that, please say so. I can also tab some new/other songs if anybody has suggestions.

guest
You may want to rate the tab now too:
select rating
Wanna post a correction for this tab? Suggest correction