Oops, an error
Loading. Please wait.

Morrowind Theme tab

version 8
version 8
2,024 views 1 this week
no commentswrite comment
1 2 3 4 5
1 last vote to show rating
add to favorites
×
Save as Personal and add changes to this tab that will be seen only by you. Learn more ›
×
You can save this tab as Personal to edit and correct it or add notes. All changes will be seen only by you. Learn more »
launch autoscroll
font size
0
reset
how to read this tab
guitar tuner
edit
Autoscroll
slow
fast
+/-
esc
set tempo
stop
Author
-------------------------------------------------------------------------------
                             Morrowind Theme - Elder Scrolls: Morrowind
-------------------------------------------------------------------------------
Tabbed by:cruiser101
Email: hendersonlogan22@yahoo.com

Tuning: Standard


 I really love this song, as well as the rest of the fantastic music in the Elder
Scrolls games. Jeremy Soule is the man who wrote this fantastic music, and should be 
given all credit!.
I know this is completely right. I noticed that there were other tabs, some being in the
incorrect key compared to the actual song, and this version corrects that.
Enjoy :)


UPDATE*  I have included the chords to go along with the melody.

         
          Cm        EbMaj   BbMaj.        Fm         Cm     EbMaj    AbMaj  Fm
e|----------------------------------------------------------------------------|
B|--------------------------------------------------------------------1----3-1|
G|--------------------0---0-3---------------------------------0---0-3----3----|
D|-------0-1----1-3----------3--3h5p3--1-0---------0-1----1-3-----------------|
A|----3-------------------------------------3----3----------------------------|
E|----------------------------------------------------------------------------|

(triplet)|____________|

        Cm    EbMaj  BbMaj   Fm             Cm
e|------------------------------------------------------------------------------|
B|--1-3--4-3-1------------------------------------------------------------------|
G|-------------3-1-0--------0---------------------------------------------------|
D|--------------------3---1---3---3h5p3--1-0------------------------------------|
A|-------------------------------------------3----------------------------------|
E|------------------------------------------------------------------------------|





Chord Chart: Cm  EbMaj Bbmaj Fm    Abmaj
e|-----------3---6-----1-----1-----4--------|
B|-----------4---8-----3-----1-----4--------|
G|-----------5---8-----3-----1-----5--------|
D|-----------5---8-----3-----3-----6--------|
A|-----------3---6-----1-----3-----6--------|
E|-----------x---x-----x-----1-----4--------|
************************************

| /   slide up
| \   slide down
| h   hammer-on
| p   pull-off
| ~   vibrato
| +   harmonic
| x   Mute note
| b   Bend
| pb  Pre-bend
| br  Bend release
| pbr Pre-bend release
| brb Bend release bend

************************************




            
            
Suggest correction
Creating personal tab
Creating personal tab
You can edit any tab online and save it as your Personal.

You can edit, replace or remove any tab part or add personal notes – all changes will be seen only by you.

Personal tabs can be accessed anytime from any device, even offline.
Learn more »
Give kudos to tab author, rate the tab!
1 2 3 4 5
comments
print report bad tab
guest
You may want to rate the tab now too:
select rating
Wanna post a correction for this tab? Suggest correction