Oops, an error
Loading. Please wait.

My Singing Monsters - Plant Island bass

2,428 views 12 this week
2 commentsread comments
1 2 3 4 5
2 more votes to show rating
add to favorites
×
Save as Personal and add changes to this tab that will be seen only by you. Learn more ›
×
You can save this tab as Personal to edit and correct it or add notes. All changes will be seen only by you. Learn more »
launch autoscroll
font size
0
reset
guitar tuner
edit
Autoscroll
slow
fast
+/-
esc
set tempo
stop
This is the full bass line with all the monsters on the 'Plant Island' collected. I am 
working on the tab for 'Cold Island' But I need to breed all the monsters on that island 
first. PLEASE RATE :D

Tuning: Drop D# (D#, A, D, G)

~ Let ring
/ Slide up
\ Slide down
x Mute Note

INTRO:

G |---------------------------------|
D |---------------------------------|  Repeat X2
A |---------------------------------|
D#|-5~------0~------5~---/7-/9~-----|

MAIN PART:

G |----------------------|-1----x----0---010--|
D |----------0-1----x----|------------------31|  Repeat X4
A |-3----x---------------|--------------------|
D#|----------------------|--------------------|

SECOND PART:

G |-----------------|-----------------|
D |-----------------|-----------------|  Repeat X10
A |-3-3-3-3\--------|-6-6-6-6---------|
D#|---------5-5-5-5-|---------4-4-4-4-|

Repeat for the rest of eternity.

Depending on the number of monsters you have you can vary the number of times you repeat 
the second part.

            
            
Suggest correction
Creating personal tab
Creating personal tab
You can edit any tab online and save it as your Personal.

You can edit, replace or remove any tab part or add personal notes – all changes will be seen only by you.

Personal tabs can be accessed anytime from any device, even offline.
Learn more »
Give kudos to tab author, rate the tab!
1 2 3 4 5
comments
print report bad tab
2 comments total.
+1 reply
khellenga 10 Mar 12, 2014 08:22 PM

"Play for the rest of eternity" ? nicely said :) Great tab - thanks!

0 reply
kevin133 10 Jul 04, 2014 11:03 AM

didn't like this contribution

guest
You may want to rate the tab now too:
select rating
Wanna post a correction for this tab? Suggest correction