Oops, an error
Loading. Please wait.

Neal Acree - Overwatch - Main Theme Tab

766 views 117 this week
1 commentread comment
1 2 3 4 5
x 8
add to favorites
launch autoscroll
font size
0
reset
how to read this tab
guitar tuner
Autoscroll
slow
fast
+/-
esc
set tempo
stop
Help us to improve Ultimate-Guitar.com Take our survey!
×
Author
Difficulty
novice
[Intro]
E|-----------------------------------------------------------------------------|
B|--------------------------------------------------------------1--0--------0--|
G|-----------2--0--------------0--------------------------------------2--2-----| x1
D|--2-----2--------2--------------2--0-----------0-----------------------------|
A|-----0-----------------0--3--------------3--2-----3--2--0--------------------|
E|-----------------------------------------------------------------------------|

E|--------5--3--------------3--0--------------------------------8--7--10--8--7------|
B|-----5--------5--------1--------3-----1--0--3-----1--0------------------------10--|
G|--2-----------------2-----------------------------------2-------------------------| x1
D|----------------------------------------------------------------------------------|
A|----------------------------------------------------------------------------------|
E|----------------------------------------------------------------------------------|
Suggest correction
comments
print report bad tab
1 comment total.
0 reply
dazzadman03 10 Nov 04, 2016 12:44 PM

dude! amazing!

guest
You may want to rate the tab now too:
select rating
Wanna post a correction for this tab? Suggest correction