Oops, an error
Loading. Please wait.

Night In The Woods - Die Anywhere Else tab

version 1
version 1

Whole song

  • Capo on 3rd fret (no capo is alright too but you c... Show more

Interactive

1,672 views 93 this week
1 commentread comment
1 2 3 4 5
x 4
add to favorites
×
Save as Personal and add changes to this tab that will be seen only by you. Learn more ›
×
You can save this tab as Personal to edit and correct it or add notes. All changes will be seen only by you. Learn more »
launch autoscroll
font size
0
reset
how to read this tab
guitar tuner
edit
Autoscroll
slow
fast
+/-
esc
set tempo
stop
About this tab version
Capo on 3rd fret (no capo is alright too but you can't really play along to the original then). Was this info helpful? Yes No
Capo on 3rd fret! (no capo is alright too but you can't play along to the original then)

[Verse]

e|--------------------------------------------|
B|1-1-3--5-5----------3-3-5--5-6-5----10--10-8|
G|-----------5-2-2-4---------------7-5--------|
D|--------------------------------------------| [x2]
A|--------------------------------------------|
E|--------------------------------------------|

Dust on these..     Mark corners.....
Dust trace...       In circles.....


[Chorus]
e|7-7-7-7-8------------------|
B|---------8-8-8/10--6-5-3-1-|
G|---------------------------|
D|---------------------------|
A|---------------------------|
E|---------------------------|

I just wanna die anywhere....

e|7-7-7-7-8------------------|
B|---------8-8-8/6--6-5-3-1--|
G|---------------------------|
D|---------------------------|
A|---------------------------|
E|---------------------------|

If only I could...

e|7-7-7-7-8------------------|
B|---------8-8-8/10--6-5-3-1-|
G|---------------------------|
D|---------------------------|
A|---------------------------|
E|---------------------------|
Come with me...

[Bridge-thingy]
e|------------------|
B|6-5---6-5---------|
G|---5-----4--2/4/2-|
D|------------------|
A|------------------|
E|------------------|

Anywhere..just not here..

[Verse 2]
e|---------------------------------------------|
B|1-1-3--5-5----------3-3-5--5-6-5----10--10-8-|
G|-----------5-2-2-4---------------7-5---------|
D|---------------------------------------------|  [x2]
A|---------------------------------------------|
E|---------------------------------------------|

Stuck on this..     Where all the.....
Stuck-where past... Watching all our.....

[Chorus 2]

e|7-7-7-7-8------------------|
B|---------8-8-8/10--6-5-3-1-|
G|---------------------------|
D|---------------------------|
A|---------------------------|
E|---------------------------|

I just wanna die anywhere....

e|7-7-7-7-8------------------|
B|---------8-8-8/6--6-5-3-1--|
G|---------------------------|
D|---------------------------|
A|---------------------------|
E|---------------------------|

If only I could...

e|7-7-7-7-8------------------|
B|---------8-8-8/10--6-5-3-1-|
G|---------------------------|
D|---------------------------|
A|---------------------------|
E|---------------------------|
Come with me...


[Bridge]

e|--------------------------------|
B|8-8-8-8-6-5-6-5---5-5-5-3-1-3-1-|
G|--------------------------------|
D|--------------------------------|
A|--------------------------------|
E|--------------------------------|

And if they...     Will they know...

e|--------------------------------|
B|8-8-8-8-6-5-6-5--10-8-5-8-5-3-5-|
G|--------------------------------|
D|--------------------------------|
A|--------------------------------|
E|--------------------------------|

Around these dusty... My tired....

e|--------------------------------|
B|8-8-8-8-6-5-6-5---5-5-5-3-1-3-1-|
G|--------------------------------|
D|--------------------------------|
A|--------------------------------|
E|--------------------------------|

And will they...     What was here...

e|------------------|
B|1-1-0-1-0-0-1---3-|
G|--------------0---|
D|------------------|
A|------------------|
E|------------------|

They won't remember...

[Chorus 3]
e|7-7-7-7-8------------------|
B|---------8-8-8/10--6-5-3-1-|
G|---------------------------|
D|---------------------------|
A|---------------------------|
E|---------------------------|

I just wanna die anywhere....

e|7-7-7-7-8------------------|
B|---------8-8-8/6--6-5-3-1--|
G|---------------------------|
D|---------------------------|
A|---------------------------|
E|---------------------------|

If only I could...

e|7-7-7-7-8------------------|
B|---------8-8-8/10--6-5-3-1-|
G|---------------------------|
D|---------------------------|
A|---------------------------|
E|---------------------------|
Come with me... 

            
            
Suggest correction
Creating personal tab
Creating personal tab
You can edit any tab online and save it as your Personal.

You can edit, replace or remove any tab part or add personal notes – all changes will be seen only by you.

Personal tabs can be accessed anytime from any device, even offline.
Learn more »
comments
print report bad tab
1 comment total.
0 reply
LuminalThunder 53 Aug 30, 2017 05:27 AM

Good job! Catchy tune from a really good game.

guest
You may want to rate the tab now too:
select rating
Wanna post a correction for this tab? Suggest correction