Oops, an error
Loading. Please wait.

Persona 5 - Confession tab

697 views 18 this week
no commentswrite comment
1 2 3 4 5
2 more votes to show rating
add to favorites
×
Save as Personal and add changes to this tab that will be seen only by you. Learn more ›
×
You can save this tab as Personal to edit and correct it or add notes. All changes will be seen only by you. Learn more »
launch autoscroll
font size
0
reset
how to read this tab
guitar tuner
edit
Autoscroll
slow
fast
+/-
esc
set tempo
stop
Tab by Patrick Andersson
Feel free to suggest changes!

Guitar 1 is using something akin to a heavy Wah pedal
Guitar 2 is a simple clean guitar with a jazzy vibe

Link to my rendition of the song: https://youtu.be/H775q7vEoTU

Guitar 1
E|------------------------------|
B|--10/12--10-------------------|
G|-------------9----9/10--9-----| X4
D|---------------------------9--|
A|------------------------------|
E|------------------------------|

Guitar 2
E|----------------------------------------|----------------------------------------------|
B|---------/12--10------------------------|---------/12--12b13--10-----------------------|
G|--14p12-------------9--9p7--9/10--9-----|--14p12------------------12--9--12--10--9-----| X2
D|-------------------------------------9--|-------------------------------------------7--|
A|----------------------------------------|----------------------------------------------|
E|----------------------------------------|----------------------------------------------|

Guitar 2
E|--------------------------------------------------|
B|--------------------------------------------------|
G|--4--4/5-----4--4/5----5/7--9--7--5----5--5\4--2--|
D|--------------------------------------------------|
A|--------------------------------------------------|
E|--------------------------------------------------|

Guitar 2
E|---------------------------------------------------------------|
B|--12--13----10--11---------------------------------------------|
G|----------------------12--14----9--9--12--10--9--7--5--7--7/9--|
D|---------------------------------------------------------------|
A|---------------------------------------------------------------|
E|---------------------------------------------------------------|

Guitar 1
E|----------------------------------------|----------------------------------------------|
B|---------/12--10------------------------|---------/12--12b13--10-----------------------|
G|--14p12-------------9--9p7--9/10--9-----|--14p12------------------12--9--12--10--9-----| X2
D|-------------------------------------9--|-------------------------------------------7--|
A|----------------------------------------|----------------------------------------------|
E|----------------------------------------|----------------------------------------------|

Guitar 2
E|----------------------------------------|----------------------------------------------|
B|---------/12--10------------------------|---------/12--12b13--10-----------------------|
G|--14p12-------------9--9p7--9/10--9-----|--14p12------------------12--9--12--10--9-----| X2
D|-------------------------------------9--|-------------------------------------------7--|
A|----------------------------------------|----------------------------------------------|
E|----------------------------------------|----------------------------------------------|

Guitar 2                           Fade out
E|--------------------------------------------------|
B|--------------------------------------------------|
G|--4--4/5-----4--4/5----5/7--9--7--5----5--5\4--2--|
D|--------------------------------------------------|
A|--------------------------------------------------|
E|--------------------------------------------------|

************************************

| b  Bend
| p  Pull off
| h  Hammer on
| /  Slide up
| \  Slide down
 
************************************

            
            
Suggest correction
Creating personal tab
Creating personal tab
You can edit any tab online and save it as your Personal.

You can edit, replace or remove any tab part or add personal notes – all changes will be seen only by you.

Personal tabs can be accessed anytime from any device, even offline.
Learn more »
Give kudos to tab author, rate the tab!
1 2 3 4 5
comments
print report bad tab
guest
You may want to rate the tab now too:
select rating
Wanna post a correction for this tab? Suggest correction