Oops, an error
Loading. Please wait.

Phoenix Wright Ace Attorney - I Want To Protect You Tab

10 views 1 this week
no commentswrite comment
1 2 3 4 5
3 more votes to show rating
add to favorites
launch autoscroll
font size
0
reset
how to read this tab
guitar tuner
Autoscroll
slow
fast
+/-
esc
set tempo
stop
Help us to improve Ultimate-Guitar.com Take our survey!
×
Author
Difficulty
novice
This melody is continually looped.


e|--------------------------10------------------------|
B|-----5--7--8--10----10----------10----10-8--7-------|
G|--7-------------------------------------------------|
D|----------------------------------------------------|
A|----------------------------------------------------|
E|----------------------------------------------------|

e|--------------------------10------------------------|
B|--------7--8--10----10-------10-------10------------|
G|--7--9--------------------------11-12---------------|
D|----------------------------------------------------|
A|----------------------------------------------------|
E|----------------------------------------------------|

e|--------------------------10------------------------|
B|-----5--7--8--10----10----------10----10-8--7-------|
G|--7-------------------------------------------------|
D|----------------------------------------------------|
A|----------------------------------------------------|
E|----------------------------------------------------|

e|--------------7-----7--9--10------------------------|
B|--8-----8--10-------------------10------------------|
G|--------------------------------------7-------------|
D|----------------------------------------------------|
A|----------------------------------------------------|
E|----------------------------------------------------|
Suggest correction
Give kudos to tab author, rate the tab!
1 2 3 4 5
comments
print report bad tab
guest
You may want to rate the tab now too:
select rating
Wanna post a correction for this tab? Suggest correction