Oops, an error
Loading. Please wait.

Pokemon - Battle Theme tab

version 1
version 1

Whole song

Interactive

67,359 views 54 this week
4 commentsread comments
1 2 3 4 5
x 20
add to favorites
×
Save as Personal and add changes to this tab that will be seen only by you. Learn more ›
×
You can save this tab as Personal to edit and correct it or add notes. All changes will be seen only by you. Learn more »
launch autoscroll
font size
0
reset
how to read this tab
guitar tuner
edit
Autoscroll
slow
fast
+/-
esc
set tempo
stop
Author
Difficulty
This is the song that plays in heart gold and soul silver when you fight lance and red.

e|---------------------------6-----|
B|-4-4-4-4-5-4-4-4-4-4-4-4-4-------|
G|---------------------------------|
D|---------------------------------|
A|---------------------------------|
E|---------------------------------|

e|-------------7-----------------|
B|-4-4-4-4-4-4-------------------|
G|-------------------------------|
D|-------------------------------|
A|-------------------------------|
E|-------------------------------|

e|-----------------6---7---6----------------|
B|-4-4-4-4-4-4-4-4---4---4---4-4-4-4-5-4----|
G|------------------------------------------|
D|------------------------------------------|
A|------------------------------------------|
E|------------------------------------------|

e|-----6---7---9—------10-11---12-----|
B|-4-4---4---4---4-4-4-------4--------|
G|------------------------------------|
D|------------------------------------|
A|------------------------------------|
E|------------------------------------|

e|-11----11-10-9-8-7---12------|
B|----11-----------------------|
G|-----------------------------|  
D|-----------------------------|
A|-----------------------------|
E|-----------------------------|(x2)

e|-11-11-11-11-11-11-11-12---|
B|---------------------------|
G|---------------------------|
D|---------------------------|
A|---------------------------|
E|---------------------------|

e|-11-11-11-11-11-11-11-14---|
B|---------------------------|
G|---------------------------|
D|---------------------------|
A|---------------------------|
E|---------------------------|

e|-11--9---------------------|
B|---------------------------|
G|---------------------------|
D|---------------------------|
A|---------------------------|
E|--------11--12-------------|

            
            
Suggest correction
Creating personal tab
Creating personal tab
You can edit any tab online and save it as your Personal.

You can edit, replace or remove any tab part or add personal notes – all changes will be seen only by you.

Personal tabs can be accessed anytime from any device, even offline.
Learn more »
comments
print report bad tab
4 comments total. Showing first comments.
+3 reply
ShaneMcChristy 31 Aug 18, 2010 02:28 PM

Hmm, here's where you made your mistake:

"The Whole Thing"

Yeah you need to fix that.

+1 reply
thehalobox 63 Sep 03, 2014 11:51 AM

Lack of accuracy.

+1 reply
ChiefRocca 10 Dec 28, 2015 12:59 PM

i would of pressed one star....
but it asked for a reason
sooooooo
yeah

guest
You may want to rate the tab now too:
select rating
Wanna post a correction for this tab? Suggest correction