Oops, an error
Loading. Please wait.

Pokemon - Lance Battle Theme Tab

version 1
version 1

Whole song

Interactive

37,978 views 75 this week
1 commentread comment
1 2 3 4 5
x 11
add to favorites
launch autoscroll
font size
0
reset
how to read this tab
guitar tuner
Autoscroll
slow
fast
+/-
esc
set tempo
stop
Help us to improve Ultimate-Guitar.com Take our survey!
×
Author
Difficulty
novice
Song Title: Lance Battle Theme

Artist: Pokemon Games (From Nintendo)

Covered by: Ike Algernon (Me)

Regular Guitar text Tab

Standard Tuning: EADGBE

Lance Battle Theme
Intro
e|---------------------------------------------------------|
B|---------------------------------------------------------|
g|---------------------------------------------------------|
d|--13--13--13----13-13-12-13-13---13-13--13-13------------|
a|---------------------------------------------------------|
E|---------------------------------------------------------|


e|----------------------------------------------------------|
B|----------------------------------------------------------|
g|---------15-------------------------------16--------------|
d|--13-13-------13-13--13-13--13-13--13-13-----13-13--13-13-|
a|----------------------------------------------------------|
E|----------------------------------------------------------|


e|-------------------|---------------------------------------|
B|---------------14~-|---------------------------------------|
g|-------------------|---------15-------16-------15----------|
d|--13-13--13-13-----|---13-13----13-13----13-13----13-13-12-|
a|-------------------|---------------------------------------|
E|-------------------|---------------------------------------|

e|---------------------------------------------------------|
B|---------------------------------------------------------|
g|--------15-------16-------15-----------------------------|
D|--13-13----13-13----13-13----13-13-15--------------------|
a|---------------------------------------------------------|
E|---------------------------------------------------------|

e|---------------------------------------------------------|
B|---------------------------------------------------------|
g|--------15-------16-------15-----------------------------|
d|--13-13----13-13----13-13----13-13-12--------------------|
a|---------------------------------------------------------|
E|---------------------------------------------------------|

e|---------------------------------------------------------|
B|--------------------------14-------15~-16~-----17~-------|
g|--------15-------16---------------------------------7/15~|
d|--13-13----13-13----13-13----13-13---------13------------|
a|---------------------------------------------------------|
E|---------------------------------------------------------|

Main Body
e|-----------------------------------------------------------|
B|--16------16-15---------------------17~----------------14~-|
g|-----15~--------18-17-16--15h16-16~-----------16-----------|
d|----------------------------------------14-14----16-16-----|
a|-----------------------------------------------------------|
E|-----------------------------------------------------------|

e|-------------------------------------16~-----19~---------|
B|--16~-----16-15------------------17~-----17~-------------|
g|------15~-------18-17-16 15h16---------------------------|
d|---------------------------------------------------------|
a|---------------------------------------------------------|
E|---------------------------------------------------------|

e|---------------------------------------------------------|
B|--16-16--16-16-16-16-16/17~---16-16--16-16-16-16-16/19~--|
g|---------------------------------------------------------|
d|---------------------------------------------------------|
a|---------------------------------------------------------|
E|---------------------------------------------------------|

e|---------------------------------------------------------|
B|--16~------14~-------------------------------------------|
g|---------------------------------------------------------|
d|------13~------11~--11/13~~--15~~~16~~~------------------|
a|---------------------------------------------------------|
E|---------------------------------------------------------|

e|---------------|------(fast)-------|
B|--16-15--------|-16-15-------------|
g|--------18-17--|-------18-17-16-16-|   x2
d|---------------|-------------------|
a|---------------|-------------------|
E|---------------|-------------------|

e|---------------------------------------------------------|
B|---------------------------------------------------------|
g|-------16~~-15~~-14~~------17/13(slide)------------------|
d|--13~~---------------------------------------------------|
a|---------------------------------------------------------|
E|---------------------------------------------------------|

e|---------------------------------------------------------|
B|---------------------------------------------------------|
g|--------15-------16-------15-------13-------15-------16--|
d|--13-13----13-13----13-13----13-13----13-13----13-13-----|
a|---------------------------------------------------------|
E|---------------------------------------------------------|

e|---------------------------------------------------------|
B|--------14-------15--15/16~-17~-19~-17~-16~-17~-19~-21~!-|
g|---------------------------------------------------------|
d|--13-13----13-13-----------------------------------------|
a|---------------------------------------------------------|
E|---------------------------------------------------------|


Repeat main body as many time as you wish.


~Ike Algernon
Suggest correction
comments
print report bad tab
1 comment total.
0 reply
Deathblossoms96 31 Feb 23, 2011 04:43 PM

a love you algernon

guest
You may want to rate the tab now too:
select rating
Wanna post a correction for this tab? Suggest correction