Oops, an error
Loading. Please wait.

Pokemon - Lavender Town Theme Tab

version 1
version 1

Acoustic

  • Acoustic version to play with a simple guitar (if ... Show more

Whole song

Interactive

109 views 21 this week
no commentswrite comment
1 2 3 4 5
1 last vote to show rating
add to favorites
launch autoscroll
font size
0
reset
how to read this tab
guitar tuner
Autoscroll
slow
fast
+/-
esc
set tempo
stop
Help us to improve Ultimate-Guitar.com Take our survey!
×
Author
Difficulty
Tuning
intermediate
D A D G B E
About this tab version
Acoustic version to play with a simple guitar (if you want to play both riffs together, I recommend tu use an uke for the first riff). Was this info helpful? Yes No
[Verse 1]

e|-------18-----   
B|-----19--18---    1st riff: played throughout
G|---16---------    the whole song.
D|--------------
A|--------------
D|--------------

[Verse 2]

e|---------------------------------------------------
B|-----------------0-----------------0-----0-1---1---    2nd riff: it sounds in most part of the song
G|---0-0-----0---------------0-0-------0-------------
D|---2-2-2-2---4-2---2-----2-2-2-4-4-----4---2-----2-
A|-------5-5-3-------4-3-4-------5-5-3---------3-2---
D|---2-2-0-0-----------------2-2-0-0-----------------

Enjoy!!
Suggest correction
Give kudos to tab author, rate the tab!
1 2 3 4 5
comments
print report bad tab
guest
You may want to rate the tab now too:
select rating
Wanna post a correction for this tab? Suggest correction