Oops, an error
Loading. Please wait.

Pokemon - Lavender Town Theme Tab

version 1
version 1

Whole song

Interactive

79,877 views 396 this week
21 commentsread comments
1 2 3 4 5
excellent!
x 23
add to favorites
launch autoscroll
font size
0
reset
how to read this tab
guitar tuner
Autoscroll
slow
fast
+/-
esc
set tempo
stop
Help us to improve Ultimate-Guitar.com Take our survey!
×
Author
Hi there!
This is the infamous Lavender Town theme from Pokemon Red/Blue!


Tuning: E flat


   *slight echo
e|-----------------------------------20--------|   X4
B|---------------------------------21--20------|
G|-------------------------------18------------|
D|---------------------------------------------|
A|---------------------------------------------|
E|---------------------------------------------|


e|---------------------------------------------|
B|-----------------------------13--------------|
G|----13--13--10--10--13-12-10---7--7----------|
D|---------------------------------------------|
A|---------------------------------------------|
E|---------------------------------------------|


e|---------------------------------------------|
B|---------------------13------13-14--14-------|
G|----13--13--12--12-----13-12-----------------|
D|---------------------------------------------|
A|---------------------------------------------|
E|---------------------------------------------|


And repeat so on until the song ends.
I was looking for an easy song to tab, and this popped in my head.
Suggest correction
comments
print report bad tab
21 comments total. Showing first comments.
+9 reply
awesomething 10 wrote on June 2 2012, 06:05 am

Is it me or dose this sound really, really freaky

+1 reply
Metal Head420 65 wrote on August 23 2012, 06:37 am

Why the hell is the tuning E flat?!?!?!?!

Did you mean the key?! I'm too lazy/don't care enough to check myself lol

You could play this in standard just fine... Although I'm already tuned E flat anyway so it's w/e.... I just fail to see the point why it is down a half step :P

+2 reply
W.D. Stevens 21 wrote on December 9 2012, 01:05 am

I only have 19 frets -.-

guest
You may want to rate the tab now too:
select rating
Please do not post tabs as comments. Select "correction" instead!