Oops, an error
Loading. Please wait.

Pokemon - Olivine Lighthouse Theme Tab

version 1
version 1

Whole song

Interactive

813 views 1 this week
1 commentread comment
1 2 3 4 5
1 last vote to show rating
add to favorites
launch autoscroll
font size
0
reset
how to read this tab
guitar tuner
Autoscroll
slow
fast
+/-
esc
set tempo
stop
Help us to improve Ultimate-Guitar.com Take our survey!
×
Author
Tabbers playing skills
advanced +
                                              Pokemon
                                     OLIVINE LIGHTHOUSE THEME   
                                      Gold - Silver - Crystal
 

NOTE: Both harmony and main melody have been included. Look
toward the bottom for the harmony. 


Main melody

      H        Q     E  E      H        H           E  Q    E  H         
E||------------------------|------------9--------|--8-------------------|
B||---9-----------------9--|--10-----------------|-------------9--------|
G||*----------------11-----|---------------------|----------------------|
D||*-----------------------|---------------------|----------------------|
A||------------------------|---------------------|----------------------|
E||------------------------|---------------------|----------------------|


  H         E   E   E   E     H        Q     E  E      H        H         
---------------------------|-----------------------|------------9--------|
---------------------------|--9-----------------9--|--10-----------------|
---------------------------|----------------11-----|---------------------|
-----------11--11--11--11--|-----------------------|---------------------|
---------------------------|-----------------------|---------------------|
---------------------------|-----------------------|---------------------|


  E  Q    E   H           Q    E  E  E  E  E  E      H        Q     E  E   
--8----------11--------|-------------------------|--12-------------11--9--|
-----------------------|-------------------------|------------------------|
-----------------------|-------8--8--8-----8-----|------------------------|
-----------------------|-------------------------|------------------------|
-----------------------|-------------------------|------------------------|
-----------------------|-------------------------|------------------------|


  H        Q     Q        E  E   H        Q       E   E  E   E   H         
----------------------|------9--11-------------|--------------------------|
--9-------------11----|--12--------------------|--------------------------|
----------------------|------------------------|--8------8----------------|
----------------------|------------------------|-----11-----11--10--------|
----------------------|------------------------|--------------------------|
----------------------|------------------------|--------------------------|


   H        Q     E  E     H        Q    Q        E  E   Q    H         
--12-------------11--9--|----------------8----|------8--11-------------|
------------------------|--9------------------|--12--------------------|
------------------------|---------------------|------------------------|
------------------------|---------------------|------------------------|
------------------------|---------------------|------------------------|
------------------------|---------------------|------------------------|


  E   E  E   E   H        
---------------------------||
---------------------------||
--8------8----------------*||
-----11-----11--10--------*||
---------------------------||
---------------------------||










Harmony 

      H        E  E  E  E     Q    Q    Q    Q       E  Q    E  Q    E  E   
E||------------------------|----------------------|------------------------|
B||------------------------|----------------------|------------------------|
G||*--6--------------------|--6-------------------|-------------5----------|
D||*--------------6--7--9--|-------9----7----9----|--6---------------6--6--|
A||------------9-----------|----------------------|------------------------|
E||------------------------|----------------------|------------------------|


  E  E  E  E  E  E  E  E     H        E  E  E  E     E  E  E  E  E  E  E  E   
--------------------------|-----------------------|--------------------------|
--------------------------|-----------------------|--------------------------|
--------------------------|--6-----------------5--|--7--6--------------------|
--6--------5--6--7--7--7--|--------------4--6-----|--------7--6--7--6--4--7--|
--------6-----------------|-----------4-----------|--------------------------|
-----8--------------------|-----------------------|--------------------------|


  E  Q    E  H           Q    E  E  E  E  E  E     Q    Q    Q    Q     
----------------------|-------------------------|-------5----4---------|
----------------------|-------------------------|-----------------7----|
-------------5--------|-------------------5-----|----------------------|
--6-------------------|-------6--6--6-----------|--7-------------------|
----------------------|-------------------------|----------------------|
----------------------|-------------------------|----------------------|


  Q    Q    Q    Q       E  E  H        Q       E  E  E  E  H         
----------------------|----------------------|-----------------------|
--5----4---------5----|--7--5--4-------------|-----------------------|
------------6---------|----------------------|--4-----4--------------|
----------------------|----------------------|-----7-----7--6--------|
----------------------|----------------------|-----------------------|
----------------------|----------------------|-----------------------|


  Q    Q    E  E  E  E     E  E  E  E  E  E  E  E     E  E  H        Q     
-------5----4-----------|--------------------------|--------4-------------|
---------------7--5--7--|--5--4-----------------4--|--5--7----------------|
------------------------|--------6--4-----4--6-----|----------------------|
--7---------------------|--------------7-----------|----------------------|
------------------------|--------------------------|----------------------|
------------------------|--------------------------|----------------------|


 
  E  E  E  E  H                 
---------------------------------||
---------------------------------||
--4-----4-----------------------*||
-----7-----7--6-----------------*||
---------------------------------||
---------------------------------||




Duration Legend
---------------
W - whole
H - half
Q - quarter
E - 8th
S - 16th
T - 32nd
X - 64th
. - note dotted
|-n-|  - n-tuplets


Tablature Legend
----------------
L - tied note
x - dead note
g - grace note
(n) - ghost note
> - accentuded note
NH - natural harmonic
AH - artificial harmonic
TH - tapped harmonic
SH - semi harmonic
PH - pitch harmonic
h - hammer on
p - pull off
b - bend
br - bendRelease
pb - preBend
pbr - preBendRelease
brb - bendReleaseBend
\n/ - tremolo bar dip
\n - tremolo bar dive
-/n - tremolo bar Release up
/n\ - tremolo bar inverted dip
/n - tremolo bar return
-\n - tremolo bar Release down
S - shift slide
s - legato slide
/ -  slide into from below or out of upwards
\ -  slide into from above or out of downwards
~ - vibrato
W - wide vibrato
tr - trill
TP - tremolo picking
T - tapping
S - slap
P - pop
< - fade in
^ - brush up
v - brush down
Suggest correction
Give kudos to tab author, rate the tab!
1 2 3 4 5
comments
print report bad tab
1 comment total.
0 reply
ChrisATD1 119 Jan 19, 2013 08:01 PM

Awesome tab!

guest
You may want to rate the tab now too:
select rating
Wanna post a correction for this tab? Suggest correction