Oops, an error
Loading. Please wait.

Pokemon - Pokecenter Theme Tab

version 1
version 1

Whole song

Interactive

37,324 views 36 this week
1 commentread comment
1 2 3 4 5
x 12
add to favorites
launch autoscroll
font size
0
reset
how to read this tab
guitar tuner
Autoscroll
slow
fast
+/-
esc
set tempo
stop
Help us to improve Ultimate-Guitar.com Take our survey!
×
Chords diagrams:

           D                  A5/E                  F#m                   G
      x x x 7 7 x         x x x 9 10 x         x x x 11 10 x        x x x 12 12 x

          Em
      x x x 9 8 x

Gtr I (E A D G B E) - 'Lead'
Gtr II (E A D G B E) - 'Rhythmy'

   Welcome...
    Q=125
    D                       A5/E
   4/4
    Gtr I
     E  E  E  Q    Q    E    E  Q.       Q     Q
e||-----------17---15---14-|-12----------------------|
B||o-15----15--------------|----14-------------------|
G||-----14-----------------|-------------14----------|
D||------------------------|-------------------14----|
A||o-----------------------|-------------------------|
E||------------------------|-------------------------|
 |
 |   Gtr II
 |    E  E  E  E E  E E  E    E  E  E  E  E  E  E  E
e||------------------------|-------------------------|
B||o-----7-----7----7-8--7-|----10----10----10----10-|
G||---7-----7----7---------|--9-----9-----9-----9----|
D||------------------------|-------------------------|
A||o-----------------------|-------------------------|
E||------------------------|-------------------------|


                            F#m
    E  E  E  Q    Q     E    E  Q.        Q     Q
e|----------14---12-------|----14---------------------|
B|-14----14------------14-|-15------------------------|
G|----14------------------|--------------14-----------|
D|------------------------|--------------------14-----|
A|------------------------|---------------------------|
E|------------------------|---------------------------|
 |
 |  E  E  E  E E  E  E  E    E  E   E  E  E  E  E  E
e|------------------------|---------------------------|
B|----10----10---10----10-|----10-----10----10----10--|
G|--9-----9----9----12----|-11-----11----11----12-----|
D|------------------------|---------------------------|
A|------------------------|---------------------------|
E|------------------------|---------------------------|


   D                       A5/E
    E  E  E  Q    Q    E    E  Q.       Q     Q
e|----------17---15---14-|-12----------------------|
B|-15----15--------------|----14-------------------|
G|----14-----------------|-------------14----------|
D|-----------------------|-------------------14----|
A|-----------------------|-------------------------|
E|-----------------------|-------------------------|
 |
 |  E  E  E  E E  E E  E    E  E  E  E  E  E  E  E
e|-----------------------|-------------------------|
B|-----7-----7----7-8--7-|----10----10----10----10-|
G|--7-----7----7---------|--9-----9-----9-----9----|
D|-----------------------|-------------------------|
A|-----------------------|-------------------------|
E|-----------------------|-------------------------|


                            D
    E  E  E  Q    Q     E    H        Q     Q
e|----------14---12-------|----------------------|
B|-14----14------------14-|-15-------------------|
G|----14------------------|----------------------|
D|------------------------|----------12----14----|
A|------------------------|----------------------|
E|------------------------|----------------------|
 |
 |  E  E  E  E E  E  E  E    E E E E  E  E  E E
e|------------------------|----------------------|
B|----10----10---10----10-|----7---7----10--8-7--|
G|--9-----9----9----12----|--7---7----7----------|
D|------------------------|----------------------|
A|------------------------|----------------------|
E|------------------------|----------------------|


  We'll Heal Your Pokemon
   F#m                       G
    H           H             E  E  E  E  H
e|-14----------17----------|-15-17-15-14-------------|
B|-------------------------|-------------17----------|
G|-------------------------|-------------------------|
D|-------------------------|-------------------------|
A|-------------------------|-------------------------|
E|-------------------------|-------------------------|
 |
 |  E  E  E  E  E  E  E  E    E  E  E  E  E  E  E  E
e|-------------------------|-------------------------|
B|----10----10----10----10-|----12----12----12----12-|
G|-11----11----11----11----|-12----12----12----12----|
D|-------------------------|-------------------------|
A|-------------------------|-------------------------|
E|-------------------------|-------------------------|


   Em                  F#m
    H        H          E  E  E  E  H
e|----------12-------|-14-15-14-12--------------|
B|-14----------------|-------------15-----------|
G|-------------------|--------------------------|
D|-------------------|--------------------------|
A|-------------------|--------------------------|
E|-------------------|--------------------------|
 |
 |  E E E E  E E E E    E  E  E  E  E  E  E  E
e|-------------------|--------------------------|
B|----8---8----8---8-|----10----10----10----10--|
G|--9---9----9---9---|-11----11----11----12-----|
D|-------------------|--------------------------|
A|-------------------|--------------------------|
E|-------------------|--------------------------|


                             G
    H           H             E  E  E  E  H
e|-14----------17----------|-15-14-15-17-19----------|
B|-------------------------|-------------------------|
G|-------------------------|-------------------------|
D|-------------------------|-------------------------|
A|-------------------------|-------------------------|
E|-------------------------|-------------------------|
 |
 |  E  E  E  E  E  E  E  E    E  E  E  E  E  E  E  E
e|-------------------------|-------------------------|
B|----10----10----10----10-|----12----12----12----12-|
G|-11----11----11----11----|-12----12----12----12----|
D|-------------------------|-------------------------|
A|-------------------------|-------------------------|
E|-------------------------|-------------------------|


   Em                    F#m
    Q    E  E  H          E  E  E  E  H
e|-17---15-14-15-------|-14-15-14-12--------------||
B|---------------------|-------------15----------o||
G|---------------------|--------------------------||
D|---------------------|--------------------------||
A|---------------------|-------------------------o||
E|---------------------|--------------------------||
 |
 |  E E  E  E  E E E E    E  E  E  E  E  E  E E
e|---------------------|--------------------------||
B|----8-----8----8---8-|----10----10-------------o||
G|--9----9-----9---9---|-11----11----11-12-11-9---||
D|---------------------|--------------------------||
A|---------------------|-------------------------o||
E|---------------------|--------------------------||
Suggest correction
comments
print report bad tab
1 comment total.
+2 reply
GuitarViking 63 Feb 23, 2011 02:43 PM

Perfect! 5*

guest
You may want to rate the tab now too:
select rating
Wanna post a correction for this tab? Suggest correction