Oops, an error
Loading. Please wait.

Pokemon - Pokeflute Theme Tab

version 1
version 1

Whole song

Interactive

5,027 views 6 this week
no commentswrite comment
1 2 3 4 5
worth learning
x 3
add to favorites
launch autoscroll
font size
0
reset
how to read this tab
guitar tuner
Tab Pro tools
  • play this tab
  • loop segment
  • change instrument
  • show fretboard
  • metronome
Autoscroll
slow
fast
+/-
esc
set tempo
stop
Contributor
Tabbers playing skills
advanced +
                                          Pokemon
                                      POKEFLUTE THEME   
                                  Gold - Silver - Crystal
                                        Time: 4/4


Main Melody (Flute)

       E   E   Q     E   E   Q       E   E   E   E   E   E   Q     
E||-----------------17------20----|--L--22--20------17------------|
B||---17--18--20--------20--------|-------------20------18--20----|
G||*------------------------------|-------------------------------|
D||*------------------------------|-------------------------------|
A||-------------------------------|-------------------------------|
E||-------------------------------|-------------------------------|


   E   E   Q     E   E   Q       E   E   E   E   E   E   Q     
----------------17------20----|--L--22--20------17------------|
--17--18--20--------20--------|-------------20------18--20----|
------------------------------|-------------------------------|
------------------------------|-------------------------------|
------------------------------|-------------------------------|
------------------------------|-------------------------------|


  Q    E   E   E   E   Q       Q    E   E   E   E   Q     
----------------------20----|----------------------20----|
----------18--17--18--------|----------20--19--20--------|
----------------------------|----------------------------|
----------------------------|----------------------------|
----------------------------|----------------------------|
----------------------------|----------------------------|


   E   E   Q     E   E   Q        E   E   H        Q     
--19--17--19----17------17----|-------------------------|
--------------------20--------|--20--19--20-------------|
------------------------------|-------------------------|
------------------------------|-------------------------|
------------------------------|-------------------------|
------------------------------|-------------------------|


   E   E   Q     E   E   Q       E   E   E   E   E   E   Q     
----------------17------20----|--L--22--20------17------------|
--17--18--20--------20--------|-------------20------18--20----|
------------------------------|-------------------------------|
------------------------------|-------------------------------|
------------------------------|-------------------------------|
------------------------------|-------------------------------|


  Q    E   E   E   E   Q       Q    E   E   E   E   Q     
----------------------20----|----------------------20----|
----------18--17--18--------|----------20--19--20--------|
----------------------------|----------------------------|
----------------------------|----------------------------|
----------------------------|----------------------------|
----------------------------|----------------------------|


                                                         Repeat Infinitely    
   E   E   Q     E   E   Q        E   E   H        Q                 
--19--17--19----17------17----|---------------------------------------||
--------------------20--------|--20--19--20---------------------------||
------------------------------|--------------------------------------*||
------------------------------|--------------------------------------*||
------------------------------|---------------------------------------||
------------------------------|---------------------------------------||










Harmony I (Acoustic guitar)

      Q    Q    Q    Q       Q    Q    Q    Q       Q    E  E  E  E  E  E   
E||-----------------------|-----------------0----|----------------0--------|
B||--------1--------------|----------------------|-------------1--------1--|
G||*-----------------0----|-------2--------------|----------0--------0-----|
D||*----------------------|----------------------|-------2-----------------|
A||-----------------------|----------------------|-------------------------|
E||-----------------------|----------------------|-------------------------|


  E  E  E  E  E  E  E  E     E  E  E  E  E  E  E  E   
--0-----------------------|-----0--------------3--1--|
-----3-----1-----1--------|--1-----------------------|
-----------------------0--|--------2-----------------|
--------2-----3-----2-----|--------------3-----------|
--------------------------|--------------------------|
--------------------------|--------------------------|


  E  E  E  E  E  E  E  E     E  E  E  E  E  E  E  E     E  E  E  E  E  E  Q     
--0-----------------------|--------------------------|--------------3----------|
-----3--------------------|--1-----------0--3--------|-----3-----3-----3-------|
--------0-----------0-----|-----2-----0--------------|--2-----0----------------|
-----------------------2--|--------0-----------0--4--|--------------------0----|
--------------3-----------|--------------------------|-------------------------|
--------------------------|--------------------------|-------------------------|


  Q    E  E  Q    E  E     E  E  E  E  E  E  E  E     E  E  E  E  E  E  E  E   
---------------------0--|--------------------------|-----0--------------3--1--|
----------1--1----------|-----0-----1-----1--------|--1-----------------------|
--0---------------0-----|--0--------------------0--|--------2-----------------|
-------2----------------|--------2-----3-----2-----|--------------------------|
------------------------|--------------------------|--------------3-----------|
------------------------|--------------------------|--------------------------|


  E  E  E  E  E  E  E  E     E  E  E  E  E  E  E  E   
--0-----------------------|--------------------------|
-----3--------------------|--1-----------0--3--------|
--------0-----------0-----|-----2-----0--------------|
-----------------------2--|--------0-----------0--4--|
--------------3-----------|--------------------------|
--------------------------|--------------------------|


                          Repeat Infinitely    
  E  E  E  E  E  E  Q                 
--------------3------------------------||
-----3-----3-----3---------------------||
--2-----0-----------------------------*||
--------------------0-----------------*||
---------------------------------------||
---------------------------------------||










Harmony II (Acoustic guitar)

      Q    Q    Q    Q       Q     E  E   E   E   E   E   
E||-----------------------|------------------------------|
B||-----------------------|----------------------13--12--|
G||*-------9---------9----|-------10--9------------------|
D||*----------------------|--------------12--10----------|
A||-----------------------|------------------------------|
E||-----------------------|------------------------------|


   E   E  Q    H           Q     E  E   E  E  Q     
------------------------|--------------------------|
--10--12----------------|--------------------------|
------------------------|--------------------------|
------------------------|--------------------------|
------------------------|-------10-----12----------|
------------------------|--------------------------|


   E   E   E  E   E  E  Q        E   E   E  E   E  E   E   E   
-----------------------------|--------------------------------|
-----------------------------|--------------------------------|
------12--10-----------------|--12--14--12------------12--14--|
--14-------------------------|--------------------------------|
-----------------------------|--------------------------------|
-----------------13----------|-----------------12-------------|


   E   E   Q    Q     Q       Q     Q    Q     E   E   
---------------------------|--------------------------|
--12--13--12---------------|--------------------------|
---------------------14----|-------12-----------------|
---------------------------|----------------------12--|
---------------------------|------------------14------|
---------------------------|--------------------------|


   Q     E  E  Q     E  E      E   E   E  E  H         
---------------------------|--------------------------|
---------------------------|--------------------------|
---------------------------|--------------------------|
--------------------10-----|--14--12------------------|
--14----10-----------------|----------10--------------|
---------------------------|--------------------------|


   E   E   E  E   E  E  Q        E   E   E  E   E  E   E   E   
-----------------------------|--------------------------------|
-----------------------------|--------------------------------|
------12--10-----------------|--12--14--12------------12--14--|
--14-------------------------|--------------------------------|
-----------------------------|--------------------------------|
-----------------13----------|-----------------12-------------|


                                                        Repeat Infinitely   
   E   E   Q    Q     Q       Q     Q    Q     E   E                
---------------------------|-----------------------------------------||
--12--13--12---------------|-----------------------------------------||
---------------------14----|-------12-------------------------------*||
---------------------------|----------------------12----------------*||
---------------------------|------------------14---------------------||
---------------------------|-----------------------------------------||




Duration Legend
---------------
W - whole
H - half
Q - quarter
E - 8th
S - 16th
T - 32nd
X - 64th
. - note dotted
|-n-|  - n-tuplets


Tablature Legend
----------------
L - tied note
x - dead note
g - grace note
(n) - ghost note
> - accentuded note
NH - natural harmonic
AH - artificial harmonic
TH - tapped harmonic
SH - semi harmonic
PH - pitch harmonic
h - hammer on
p - pull off
b - bend
br - bendRelease
pb - preBend
pbr - preBendRelease
brb - bendReleaseBend
\n/ - tremolo bar dip
\n - tremolo bar dive
-/n - tremolo bar Release up
/n\ - tremolo bar inverted dip
/n - tremolo bar return
-\n - tremolo bar Release down
S - shift slide
s - legato slide
/ -  slide into from below or out of upwards
\ -  slide into from above or out of downwards
~ - vibrato
W - wide vibrato
tr - trill
TP - tremolo picking
T - tapping
S - slap
P - pop
< - fade in
^ - brush up
v - brush down
comments
We did not receive enough feedback on this tab! Please rate:
print report bad tab
1 2 3 4 5
I want to post or [tab]
guest
You may want to rate the tab now too:
select rating
Please do not post tabs as comments. Select "correction" instead!