Oops, an error
Loading. Please wait.

Pokemon - Route 29 Theme Tab

version 1
version 1

Whole song

Interactive

2,019 views 6 this week
no commentswrite comment
1 2 3 4 5
2 more votes to show rating
add to favorites
launch autoscroll
font size
0
reset
how to read this tab
guitar tuner
Autoscroll
slow
fast
+/-
esc
set tempo
stop
Help us to improve Ultimate-Guitar.com Take our survey!
×
Author
Difficulty
Tabbers playing skills
novice
advanced +
                                                       Pokemon
                                            ROUTE 29 THEME      
                                        Gold - Silver - Crystal



Melody



     H        Q.     S S      E  E  E  E  E  E  E  E   
E||----------------------||---0--0--3--3--------0-----|
B||------------------1-3-||---------------1--3-----1--|
G||----------------------||*--------------------------|
D||----------------------||*--------------------------|
A||----------------------||---------------------------|
E||----------------------||---------------------------|


                  >                                     
  S S E  E  E  E  E  E  S S    E  E  E  E  E  E  E  E   
--1-0-------------5--3------|--0--0--3--3--------0-----|
------3--0--------------1-3-|--------------1--3-----1--|
------------2--0------------|--------------------------|
----------------------------|--------------------------|
----------------------------|--------------------------|
----------------------------|--------------------------|


  S S E  E  E  E  E  E  S S    E  E  E  E  E  E  E  E   
--1-0-----------------------|--0--0--3--3--------0-----|
------3--3-----1--------1-3-|--------------1--3-----1--|
------------4---------------|--------------------------|
------------------2--2------|--------------------------|
----------------------------|--------------------------|
----------------------------|--------------------------|


                  >                                     
  S S E  E  E  E  E  E  S S    E  E  E  E  E  E  E  E   
--1-0-------------5--3------|--0--0--3--3--------0-----|
------3--0--------------1-3-|--------------1--3-----1--|
------------2--0------------|--------------------------|
----------------------------|--------------------------|
----------------------------|--------------------------|
----------------------------|--------------------------|


  S S E  E  E  H           E  E  E  E  E  E  E  E     E  E  E  E  E  E  E  E   
--1-0-------------------|--------------1--5--3--1--|--------------0--3--1--0--|
------3--3-----1--------|--------1--1--------------|--------1--1--------------|
------------4-----------|--2--2--------------------|--0--0--------------------|
------------------------|--------------------------|--------------------------|
------------------------|--------------------------|--------------------------|
------------------------|--------------------------|--------------------------|


  E  E  E  E  E  E  E  E     E  E  E  E  E  E  E  E   
-----------------1--0-----|--0-----------------------|
--------------3--------3--|-----3--2--3--2-----------|
--------2--2--------------|-----------------3--2--0--|
--3--3--------------------|--------------------------|
--------------------------|--------------------------|
--------------------------|--------------------------|


  E  E  E  E  E  E  E  E     E  E  E  E  E  E  E  E     E  E  E  E  Q    Q     
--------------1--5--3--1--|--------------0--3--1--0--|--1--0-----1--0---------|
--------1--1--------------|--------1--1--------------|--------3----------3----|
--2--2--------------------|--0--0--------------------|------------------------|
--------------------------|--------------------------|------------------------|
--------------------------|--------------------------|------------------------|
--------------------------|--------------------------|------------------------|


                                                      Repeat infinitely    
  E  E  E  E  E  E  E  E     E  E  E  E  E  Q    S S                 
--------0-----------0-----|--------0----------------------------------||
--1-----------1-----------|--1-----------1-------1-3------------------||
-----0-----0-----0-----0--|-----0-----0------------------------------*||
--------------------------|------------------------------------------*||
--------------------------|-------------------------------------------||
--------------------------|-------------------------------------------||




Duration Legend
---------------
W - whole
H - half
Q - quarter
E - 8th
S - 16th
T - 32nd
X - 64th
. - note dotted
|-n-|  - n-tuplets


Tablature Legend
----------------
L - tied note
x - dead note
g - grace note
(n) - ghost note
> - accentuded note
NH - natural harmonic
AH - artificial harmonic
TH - tapped harmonic
SH - semi harmonic
PH - pitch harmonic
h - hammer on
p - pull off
b - bend
br - bendRelease
pb - preBend
pbr - preBendRelease
brb - bendReleaseBend
\n/ - tremolo bar dip
\n - tremolo bar dive
-/n - tremolo bar Release up
/n\ - tremolo bar inverted dip
/n - tremolo bar return
-\n - tremolo bar Release down
S - shift slide
s - legato slide
/ -  slide into from below or out of upwards
\ -  slide into from above or out of downwards
~ - vibrato
W - wide vibrato
tr - trill
TP - tremolo picking
T - tapping
S - slap
P - pop
< - fade in
^ - brush up
v - brush down
Suggest correction
Give kudos to tab author, rate the tab!
1 2 3 4 5
comments
print report bad tab
guest
You may want to rate the tab now too:
select rating
Wanna post a correction for this tab? Suggest correction