Oops, an error
Loading. Please wait.

Pokemon - Ruins Of Alph Theme Tab

version 1
version 1

Whole song

Interactive

3,392 views 12 this week
1 commentread comment
1 2 3 4 5
excellent!
x 5
add to favorites
launch autoscroll
font size
0
reset
how to read this tab
guitar tuner
Autoscroll
slow
fast
+/-
esc
set tempo
stop
Help us to improve Ultimate-Guitar.com Take our survey!
×
Author
Tabbers playing skills
aig91 8,832
advanced +
                                  RUINS OF ALPH THEME
                                        Pokemon
                                 Gold - Silver - Crystal



Main melody


       Q     Q     E   E   E   E      Q     Q     Q    Q     
E||-------------------------------|-------------------------|
B||---13----------14--16--13------|--13----------14---------|
G||*--------15----------------15--|--------15---------------|
D||*------------------------------|-------------------------|
A||-------------------------------|-------------------------|
E||-------------------------------|-------------------------|


   Q     Q     E   E   E   E      Q    Q     Q     Q     
--------------13--12----------|-------------------------|
--------14------------13------|--13---------14----13----|
--15----------------------15--|-------------------------|
------------------------------|-------------------------|
------------------------------|-------------------------|
------------------------------|-------------------------|


   Q     Q     E   E   E   E      Q     Q     Q    Q     
------------------------------|-------------------------|
--13----------14--16--13------|--13----------14---------|
--------15----------------15--|--------15---------------|
------------------------------|-------------------------|
------------------------------|-------------------------|
------------------------------|-------------------------|


   Q     Q     E   E   E   E      Q    Q     Q     Q     
--------------13--12----------|-------------------------|
--------14------------13------|--13---------14----13----|
--15----------------------15--|-------------------------|
------------------------------|-------------------------|
------------------------------|-------------------------|
------------------------------|-------------------------|


   Q     Q     E   E   E   E      Q     Q     Q    Q     
------------------------------|-------------------------|
--13----------14--16--13------|--13----------14---------|
--------15----------------15--|--------15---------------|
------------------------------|-------------------------|
------------------------------|-------------------------|
------------------------------|-------------------------|


   Q     Q     E   E   E   E      Q    Q     Q     Q     
--------------13--12----------|-------------------------|
--------14------------13------|--13---------14----13----|
--15----------------------15--|-------------------------|
------------------------------|-------------------------|
------------------------------|-------------------------|
------------------------------|-------------------------|


   Q     Q     E   E   E   E      Q     Q     Q    Q     
------------------------------|-------------------------|
--14----------15--17--14------|--14----------15---------|
--------16----------------16--|--------16---------------|
------------------------------|-------------------------|
------------------------------|-------------------------|
------------------------------|-------------------------|


   Q     Q     E   E   E   E      Q    Q     Q     Q       Q     
--------------14--13----------|-------------------------|-------|
--12----15------------14------|--14---------15----14----|-------|
--------------------------16--|-------------------------|-------|
------------------------------|-------------------------|-------|
------------------------------|-------------------------|-------|
------------------------------|-------------------------|-------|


   H.           Q        H.           Q        H.           Q     
---------------------|---------------------|---------------------|
--13-----------------|--14-----------------|--15-----------------|
---------------------|---------------------|---------------------|
---------------------|---------------------|---------------------|
---------------------|---------------------|---------------------|
---------------------|---------------------|---------------------|


   H.           Q        H.           Q        H.           Q     
---------------------|--12-----------------|---------------------|
--14-----------------|---------------------|--16-----------------|
---------------------|---------------------|---------------------|
---------------------|---------------------|---------------------|
---------------------|---------------------|---------------------|
---------------------|---------------------|---------------------|


   H.           Q        H.           Q                                     
--18-----------------|--17-----------------|---------------|---------------|
---------------------|---------------------|---------------|---------------|
---------------------|---------------------|---------------|---------------|
---------------------|---------------------|---------------|---------------|
---------------------|---------------------|---------------|---------------|
---------------------|---------------------|---------------|---------------|


                       Repeat infinitely    
              W                 
-----------|---------------------||
-----------|---------------------||
-----------|--------------------*||
-----------|--------------------*||
-----------|---------------------||
-----------|---------------------||











Harmony 1



      E  E  Q    H           E  E  Q    H           E  E  Q    H         
E||-----------------------|----------------------|----------------------|
B||---------5-------------|--------5-------------|--------5-------------|
G||*-----6----------------|-----6----------------|-----6----------------|
D||*--6-------------------|--6-------------------|--6-------------------|
A||-----------------------|----------------------|----------------------|
E||-----------------------|----------------------|----------------------|


  E  E  Q    H           E  E  Q    E  E  Q       E  E  Q    E  E  Q     
----------------------|------------------------|------------------------|
--------5-------------|--------5-------5--6----|--------5-------5--6----|
-----6----------------|-----6-------6----------|-----6-------6----------|
--6-------------------|--6---------------------|--6---------------------|
----------------------|------------------------|------------------------|
----------------------|------------------------|------------------------|


  E  E  Q    E  E  Q       E  E  Q    E  E  E  E     E  E  Q    E  E  E  E   
------------------------|-------------------------|-------------------------|
--------5-------5--6----|--------5-------5--6-----|--------5-------5--6-----|
-----6-------6----------|-----6-------6--------5--|-----6-------6--------5--|
--6---------------------|--6----------------------|--6----------------------|
------------------------|-------------------------|-------------------------|
------------------------|-------------------------|-------------------------|


  E  E  Q    E  E  E  E     E  E  Q    E  E  E  E     E  E  Q    E  E  E  E   
-------------------------|-------------------------|-------------------------|
--------5-------5--6-----|--------5-------5--6-----|--------5-------5--6-----|
-----6-------6--------5--|-----6-------6--------5--|-----6-------6--------5--|
--6----------------------|--6----------------------|--6----------------------|
-------------------------|-------------------------|-------------------------|
-------------------------|-------------------------|-------------------------|


  E  E  Q    E  E  E  E     E  E  Q    E  E  E  E     E  E  Q    E  E  E  E   
-------------------------|-------------------------|-------------------------|
--------6-------6--7-----|--------6-------6--7-----|--------6-------6--7-----|
-----7-------7--------6--|-----7-------7--------6--|-----7-------7--------6--|
--7----------------------|--7----------------------|--7----------------------|
-------------------------|-------------------------|-------------------------|
-------------------------|-------------------------|-------------------------|


  E  E  Q    E  E  E  E     Q        H        H           H        H         
-------------------------|-------|---------------------|--------------------|
--------6-------6--7-----|-------|---------------------|--------------------|
-----7-------7--------6--|-------|---------------------|--------------------|
--7----------------------|-------|--10--------9--------|--8--------7--------|
-------------------------|-------|---------------------|--------------------|
-------------------------|-------|---------------------|--------------------|


   H         H           H        H           Q    Q    E  E  E  E   
----------------------|--------------------|------------------------|
----------------------|--------------------|---------------1--------|
----------------------|--------------------|--2----0----3-----2--0--|
--11--------10--------|--9--------8--------|------------------------|
----------------------|--------------------|------------------------|
----------------------|--------------------|------------------------|


  Q    Q    E  E  E  E     Q    Q    E  E  E  E     Q    Q    Q    Q     
------------------------|------------------------|----------------------|
---------------1--------|---------------1--------|----------------------|
--2----0----3-----2--0--|--2----0----3-----2--0--|--2----0----3---------|
------------------------|------------------------|----------------------|
------------------------|------------------------|----------------------|
------------------------|------------------------|----------------------|


  E  E  Q.      E  Q       E  E  Q.      E  Q       E  E  Q.      E  Q     
------------------------|------------------------|------------------------|
--------5~--------------|--------5~--------------|--------5~--------------|
-----6------------------|-----6------------------|-----6------------------|
--6---------------------|--6---------------------|--6---------------------|
------------------------|------------------------|------------------------|
------------------------|------------------------|------------------------|


                           Repeat infinitely    
  E  E  Q.      E  Q                 
--------------------------------------||
--------5~----------------------------||
-----6-------------------------------*||
--6----------------------------------*||
--------------------------------------||
--------------------------------------||










Harmony 2 



E||--------|-------|-------|-------|-------|-------|-------|-------|
B||--------|-------|-------|-------|-------|-------|-------|-------|
G||*-------|-------|-------|-------|-------|-------|-------|-------|
D||*-------|-------|-------|-------|-------|-------|-------|-------|
A||--------|-------|-------|-------|-------|-------|-------|-------|
E||--------|-------|-------|-------|-------|-------|-------|-------|


  E  E  E  E  E  E  Q       E  E  E  E  E  E  Q       E  E  E  E  E  E  Q     
-------------------------|-------------------------|-------------------------|
-------------------------|-------------------------|-------------------------|
-------------------------|-------------------------|-------------------------|
--6----------------------|--6----------------------|--6----------------------|
-----7-----7-----7-------|-----7-----7-----7-------|-----7-----7-----7-------|
-------------------------|-------------------------|-------------------------|


  E  E  E  E  E  E  Q       E  E  E  E  E  E  Q       E  E  E  E  E  E  Q     
-------------------------|-------------------------|-------------------------|
-------------------------|-------------------------|-------------------------|
-------------------------|-------------------------|-------------------------|
--6----------------------|--7----------------------|--7----------------------|
-----7-----7-----7-------|-----8-----8-----8-------|-----8-----8-----8-------|
-------------------------|-------------------------|-------------------------|


  E  E  E  E  E  E  Q       E  E  E  E  E  E  Q                             
-------------------------|-------------------------|-------|-------|-------|
-------------------------|-------------------------|-------|-------|-------|
-------------------------|-------------------------|-------|-------|-------|
--7----------------------|--7----------------------|-------|-------|-------|
-----8-----8-----8-------|-----8-----8-----8-------|-------|-------|-------|
-------------------------|-------------------------|-------|-------|-------|


-------|-------|-------|-------|-------|-------|-------|-------|-------|
-------|-------|-------|-------|-------|-------|-------|-------|-------|
-------|-------|-------|-------|-------|-------|-------|-------|-------|
-------|-------|-------|-------|-------|-------|-------|-------|-------|
-------|-------|-------|-------|-------|-------|-------|-------|-------|
-------|-------|-------|-------|-------|-------|-------|-------|-------|


       Repeat infinitely  
--------||
--------||
-------*||
-------*||
--------||
--------||





Duration Legend
---------------
W - whole
H - half
Q - quarter
E - 8th
S - 16th
T - 32nd
X - 64th
. - note dotted
|-n-|  - n-tuplets


Tablature Legend
----------------
L - tied note
x - dead note
g - grace note
(n) - ghost note
> - accentuded note
NH - natural harmonic
AH - artificial harmonic
TH - tapped harmonic
SH - semi harmonic
PH - pitch harmonic
h - hammer on
p - pull off
b - bend
br - bendRelease
pb - preBend
pbr - preBendRelease
brb - bendReleaseBend
\n/ - tremolo bar dip
\n - tremolo bar dive
-/n - tremolo bar Release up
/n\ - tremolo bar inverted dip
/n - tremolo bar return
-\n - tremolo bar Release down
S - shift slide
s - legato slide
/ -  slide into from below or out of upwards
\ -  slide into from above or out of downwards
~ - vibrato
W - wide vibrato
tr - trill
TP - tremolo picking
T - tapping
S - slap
P - pop
< - fade in
^ - brush up
v - brush down
Suggest correction new What's this?
You can suggest a correction to this tab. Community and Mods will review your correction and vote to approve or reject it.
comments
print report bad tab
1 comment total.
0 reply
ChrisATD1 131 wrote on January 19 2013, 08:10 pm

Sounds perfect. Awesome!

guest
You may want to rate the tab now too:
select rating
Please do not post tabs as comments. Select "correction" instead!