Oops, an error
Loading. Please wait.

Pokemon - Ss Anne Tab

version 1
version 1

Whole song

Interactive

1,834 views 6 this week
no commentswrite comment
1 2 3 4 5
accurate
x 1
add to favorites
launch autoscroll
font size
0
reset
how to read this tab
guitar tuner
Tab Pro tools
  • play this tab
  • loop segment
  • change instrument
  • show fretboard
  • metronome
Autoscroll
slow
fast
+/-
esc
set tempo
stop
Contributor
Tabbers playing skills
advanced +
                                                        Pokemon
                                            S.S. ANNE THEME     
                                          Red - Blue - Yellow




Melody



                              |---3---|                   
      E  E  Q    Q    Q       E   E   E  E  E  Q    Q     
E||------------------------|-----------------------------|
B||-------------------3----|--2h--3p--2------------------|
G||*--2-----2----4---------|-------------4--2--4----1----|
D||*-----2-----------------|-----------------------------|
A||------------------------|-----------------------------|
E||------------------------|-----------------------------|


  E  E  Q    Q    E  E     Q    E  E  Q    E  E     E  E  Q    Q    Q     
------------------------|------------------------|-----------------------|
--------2----3----2-----|--5----3--2-------2-----|------------------3----|
--2--4---------------4--|-------------4-------4--|--2-----2----4---------|
------------------------|------------------------|-----2-----------------|
------------------------|------------------------|-----------------------|
------------------------|------------------------|-----------------------|


  |---3---|                                                                   
  E   E   E  E  E  Q    Q       E  E  Q    Q    E  E     Q    E  E  H         
-----------------------------|------------------------|----------------------|
--2h--3p--2------------------|--------2----3----2-----|--5----3--2-----------|
-------------4--2--4----1----|--2--4---------------4--|-------------4--------|
-----------------------------|------------------------|----------------------|
-----------------------------|------------------------|----------------------|
-----------------------------|------------------------|----------------------|


                          |---3---|                                            
  E  E  Q    Q    Q       E   E   E  E  E  Q    Q       E  E  Q    Q    E  E   
-----------------------|-----------------------------|------------------------|
------------------3----|--2h--3p--2------------------|--------2----3----2-----|
--2-----2----4---------|-------------4--2--4----1----|--2--4---------------4--|
-----2-----------------|-----------------------------|------------------------|
-----------------------|-----------------------------|------------------------|
-----------------------|-----------------------------|------------------------|


  Q    E  E  H           E  E  E  E  E  E  E  E     E  E  E  E  E  E  E  E   
----------------------|--------------------------|--------------------------|
--5----3--2-----------|-----2-----2--2--3--2--3--|--5-----------------------|
-------------4--------|--------4-----------------|-----4-----------------4--|
----------------------|--------------------------|--------6--4-----4--6-----|
----------------------|--------------------------|--------------7-----------|
----------------------|--------------------------|--------------------------|


  E  E  E  E  E  E  E  E     E  E  E  E  E  E  E  E   
--------------------------|--------------------------|
--------------------------|--2-----------------------|
-----2--1--2--2--4--2--4--|-----1--------------1--4--|
--------------------------|--------4--2--2--4--------|
--------------------------|--------------------------|
--------------------------|--------------------------|


  E  E  E  E  E  E  E  E     E  E  E  E  E  E  E  E   
--------------------------|--------------------------|
--------------------------|--------------------------|
--------------------------|--2-----------------------|
-----4--2--4--4--6--4--6--|-----2-----------------2--|
--------------------------|--------4--2--0--2--4-----|
--------------------------|--------------------------|


                                                  Repeat infinitely    
  E  E  E  E  E  E  E  E     E  E  E  E  E  E  E  E                 
--------------------------|------------------------------------------||
--------------------------|--2--3--2-----5--3--2---------------------||
-----------------1--2--4--|-----------4-----------4-----------------*||
-----4--2--4--4-----------|-----------------------------------------*||
--------------------------|------------------------------------------||
--------------------------|------------------------------------------||











Harmony (Dropped D)



      Q    Q    Q    E  E     Q    Q    E  E  Q       Q    E  E  Q    Q     
E||------------------------|-----------------------|-----------------------|
B||------------------------|-----------------------|-----------------------|
G||*-----------------------|-----------------------|-----------------------|
D||*-----------------2--4--|--2----0-------0--2----|--2----4--0--2----4----|
A||------------------------|------------4----------|-----------------------|
D||------------------------|-----------------------|-----------------------|


  Q    E  E  Q    Q       Q    E  E  Q    Q       Q    E  E  E  E  Q     
-----------------------|-----------------------|------------------------|
-----------------------|-----------------------|------------------------|
-----------------------|-----------------------|------------------------|
--6----4--0--2----6----|----------2--4----0----|--2----2--0-----0--2----|
-----------------------|--4----4---------------|-------------4----------|
-----------------------|-----------------------|------------------------|


  Q    E  E  E  E  Q       Q    E  E  Q    Q       Q    E  E  Q    Q     
------------------------|-----------------------|-----------------------|
------------------------|-----------------------|-----------------------|
------------------------|-----------------------|-----------------------|
--2----4--0--2--6--4----|--2----0--1--2----4----|----------2--4----0----|
------------------------|-----------------------|--4----4---------------|
------------------------|-----------------------|-----------------------|


  Q    E  E  E  E  Q       Q    E  E  E  E  Q       Q    Q    Q    Q     
------------------------|------------------------|----------------------|
------------------------|------------------------|----------------------|
------------------------|------------------------|----------------------|
--2----2--0-----0--2----|--2----4--0--2--6--4----|--6----7----6----4----|
-------------4----------|------------------------|----------------------|
------------------------|------------------------|----------------------|


  Q    Q    Q    E  E     Q    Q    Q    E  E     Q    Q    Q    E  E   
-----------------------|-----------------------|-----------------------|
-----------------------|-----------------------|-----------------------|
-----------------------|-----------------------|-----------------------|
--2---------2----4--2--|--0---------0----2--0--|-----------------------|
-----------------------|-----------------------|--4---------4----5--4--|
-----------------------|-----------------------|-----------------------|


  Q    Q    Q    E  E     Q    Q    Q    E  E     Q    Q    Q    Q     
-----------------------|-----------------------|----------------------|
-----------------------|-----------------------|----------------------|
-----------------------|-----------------------|----------------------|
-----------------------|-----------------------|----------------------|
--2---------2----4--2--|--0---------0----2--0--|----------------------|
-------6---------------|-----------------------|--6---------2----6----|


  Q    Q    Q    Q       Q    Q    Q    Q    
----------------------|-----------------------||
----------------------|-----------------------||
----------------------|----------------------*||
----------------------|-----------------2----*||
----------------------|------------2----------||
--4---------0----4----|--6--------------------||




Duration Legend
---------------
W - whole
H - half
Q - quarter
E - 8th
S - 16th
T - 32nd
X - 64th
. - note dotted
|-n-|  - n-tuplets


Tablature Legend
----------------
L - tied note
x - dead note
g - grace note
(n) - ghost note
> - accentuded note
NH - natural harmonic
AH - artificial harmonic
TH - tapped harmonic
SH - semi harmonic
PH - pitch harmonic
h - hammer on
p - pull off
b - bend
br - bendRelease
pb - preBend
pbr - preBendRelease
brb - bendReleaseBend
\n/ - tremolo bar dip
\n - tremolo bar dive
-/n - tremolo bar Release up
/n\ - tremolo bar inverted dip
/n - tremolo bar return
-\n - tremolo bar Release down
S - shift slide
s - legato slide
/ -  slide into from below or out of upwards
\ -  slide into from above or out of downwards
~ - vibrato
W - wide vibrato
tr - trill
TP - tremolo picking
T - tapping
S - slap
P - pop
< - fade in
^ - brush up
v - brush down
comments
We did not receive enough feedback on this tab! Please rate:
print report bad tab
1 2 3 4 5
I want to post or [tab]
guest
You may want to rate the tab now too:
select rating
Please do not post tabs as comments. Select "correction" instead!