Oops, an error
Loading. Please wait.

Pokemon - Tin Tower Theme Tab

version 1
version 1

Whole song

Interactive

1,665 views 3 this week
1 commentread comment
1 2 3 4 5
1 last vote to show rating
add to favorites
launch autoscroll
font size
0
reset
how to read this tab
guitar tuner
Autoscroll
slow
fast
+/-
esc
set tempo
stop
Help us to improve Ultimate-Guitar.com Take our survey!
×
Author
Tabbers playing skills
advanced +
                                                Pokemon
                                            TIN TOWER THEME     
                                        Gold - Silver - Crystal


NOTE: Both harmony and main melody have been included. Look
toward the bottom for the harmony. 


Main Melody
       Q     Q     E   E   E   E      Q     Q     Q     Q     
E||-------------------------------|--------13----------------|
B||---13----13----14--13------14--|--13----------14----------|
G||*----------------------15------|--------------------15----|
D||*------------------------------|--------------------------|
A||-------------------------------|--------------------------|
E||-------------------------------|--------------------------|


   Q     Q     E   E   E   E      Q     Q     H         
------------------------------|------------------------|
--13----13----14--13------14--|--13----------13--------|
----------------------15------|------------------------|
------------------------------|------------------------|
------------------------------|--------15--------------|
------------------------------|------------------------|


   Q     Q     E   E   E   E      Q     Q     Q     Q     
------------------------------|--------13----------------|
--13----13----14--13------14--|--13----------14----------|
----------------------15------|--------------------15----|
------------------------------|--------------------------|
------------------------------|--------------------------|
------------------------------|--------------------------|


   Q     Q     E   E   E   E      Q     Q     H         
------------------------------|------------------------|
--13----13----14--13------14--|--13----------13--------|
----------------------15------|------------------------|
------------------------------|------------------------|
------------------------------|--------15--------------|
------------------------------|------------------------|


   E  E   E  E  H            E  E   E  E  Q     Q     
-------------------------|---------------------------|
-------------------------|---------------------------|
-------------------------|---------------------------|
-------------------------|---------------------------|
--15-----15--------------|--15-----15----------15----|
-------------------------|---------------------------|


   E  E   E  E  Q     Q        E  E   E  E  Q     Q     
---------------------------|---------------------------|
---------------------------|---------------------------|
---------------------------|---------------------------|
---------------------------|---------------------13----|
--16-----16----------15----|--16-----16----------------|
---------------------------|---------------------------|


   Q     Q     E   E   E   E      Q     Q     H         
------------------------------|------------------------|
--------13----11--------------|------------------------|
--12--------------13--12--13--|--12----------12--------|
------------------------------|--------10--------------|
------------------------------|------------------------|
------------------------------|------------------------|


                                              Repeat infinitely   
   Q     Q     E   E   E   E      Q     Q     H                
------------------------------|---------------------------------||
--------13----11--13--14--11--|--13----------13-----------------||
--12--------------------------|--------------------------------*||
------------------------------|--------10----------------------*||
------------------------------|---------------------------------||
------------------------------|---------------------------------||










Harmony
       Q     Q     H            Q     Q     E   E   E   E   
E||-------------------------|------------------------------|
B||-------------------------|------------------------------|
G||*--12----------13--------|--12--------------------------|
D||*--------10--------------|--------10--------10--11------|
A||-------------------------|--------------13----------13--|
E||-------------------------|------------------------------|


   Q     Q     Q     Q        Q     Q     Q.      E   
--------------------------|--------------------------|
--------------------------|----------------------11--|
--12----------13----10----|--12----------12----------|
--------10----------------|--------------------------|
--------------------------|--------10----------------|
--------------------------|--------------------------|


   E   E   E   E   H            Q     Q     E   E   E   E   
----------------------------|------------------------------|
----------------------------|--------13--------------------|
--12--10------12--13--------|--12----------13--12--10--13--|
----------11----------------|------------------------------|
----------------------------|------------------------------|
----------------------------|------------------------------|


   E   E   E   E   Q     Q        Q     Q     H         
------------------------------|------------------------|
------------------------------|------------------------|
--12----------12--13----10----|--12----------12--------|
------11----------------------|------------------------|
----------13------------------|--------10--------------|
------------------------------|------------------------|


   E  E   E  E  H            E  E   E  E  Q     Q     
-------------------------|---------------------------|
-------------------------|---------------------------|
-------------------------|---------------------------|
-------------------------|---------------------------|
--10-----10--------------|--10-----10----------10----|
-------------------------|---------------------------|


   E  E   E  E  Q     Q        E  E   E  E  Q     Q     
---------------------------|---------------------------|
---------------------------|---------------------------|
---------------------------|---------------------------|
---------------------------|---------------------------|
--11-----11----------10----|--11-----11----------13----|
---------------------------|---------------------------|


   E  E   E  E  H            E  E   E  E  H            E  E   E  E  H         
-------------------------|-------------------------|-------------------------|
-------------------------|-------------------------|-------------------------|
-------------------------|-------------------------|-------------------------|
-------------------------|-------------------------|-------------------------|
--10-----10--------------|--10-----10--------------|--10-----10--------------|
-------------------------|-------------------------|-------------------------|


                Repeat infinitely    
   E  E   E  E  H                 99x
-----------------------------------||
-----------------------------------||
----------------------------------*||
----------------------------------*||
--10-----10------------------------||
-----------------------------------||




Duration Legend
---------------
W - whole
H - half
Q - quarter
E - 8th
S - 16th
T - 32nd
X - 64th
. - note dotted
|-n-|  - n-tuplets


Tablature Legend
----------------
L - tied note
x - dead note
g - grace note
(n) - ghost note
> - accentuded note
NH - natural harmonic
AH - artificial harmonic
TH - tapped harmonic
SH - semi harmonic
PH - pitch harmonic
h - hammer on
p - pull off
b - bend
br - bendRelease
pb - preBend
pbr - preBendRelease
brb - bendReleaseBend
\n/ - tremolo bar dip
\n - tremolo bar dive
-/n - tremolo bar Release up
/n\ - tremolo bar inverted dip
/n - tremolo bar return
-\n - tremolo bar Release down
S - shift slide
s - legato slide
/ -  slide into from below or out of upwards
\ -  slide into from above or out of downwards
~ - vibrato
W - wide vibrato
tr - trill
TP - tremolo picking
T - tapping
S - slap
P - pop
< - fade in
^ - brush up
v - brush down
Suggest correction
Give kudos to tab author, rate the tab!
1 2 3 4 5
comments
print report bad tab
1 comment total.
0 reply
meteor713 20 Apr 24, 2015 08:29 PM

Nicely done, I especially like the position. Ho-oh would be proud.

guest
You may want to rate the tab now too:
select rating
Wanna post a correction for this tab? Suggest correction