Oops, an error
Loading. Please wait.

Pokemon - Title Theme Tab

version 1
version 1

Whole song

Interactive

24,802 views 33 this week
no commentswrite comment
1 2 3 4 5
3 more votes to show rating
add to favorites
launch autoscroll
font size
0
reset
how to read this tab
guitar tuner
Autoscroll
slow
fast
+/-
esc
set tempo
stop
Help us to improve Ultimate-Guitar.com Take our survey!
×
H        Q    S S S S    Q    Q    E  S S Q     
E||------------------------|------------------------|
B||------------------------|------------------------|
G||------------------------|------------------------|
D||--------------------0-4-|--5----5-------5-5-5----|
A||------------------2-2-5-|------------------------|
E||----------------3-3-----|--3----3-------3-3-3----|
B||----------------5-------|------------------------|


            |--3--|  |--3--|                                                   
  Q    Q    E  E  E  E  E  E      Q.     E  H           Q.     E  Q    E  S S  
------------------------------||---------------------|------------------------|
------------------------------||---------------------|------------6----L--5-4-|
------------------------------||---------4--7--------|------------------------|
--5----5----3--3--3--3--3--4--||--5------------------|---------3--L-----------|
------------------------------||--5------2--5--------|--3---------------------|
--3----3----3--3--3--3--3--2--||---------------------|--5---------------------|
------------------------------||---------------------|------------------------|


                                  |----3----|                           
  H        Q.     S S    H        Q    Q    Q       Q.     E  H         
----------------------|--------------------------|---------------------|
----------------------|--------------------------|---------------------|
--7-------------------|--------------------------|---------4--7--------|
-----------3------2-1-|--------------------------|--5------------------|
--5-------------------|--5--------3----2----3----|--5------2--5--------|
----------------------|--------------------------|---------------------|
----------------------|--------------------------|---------------------|


           |----3----|                |----3----|                             
  H        Q    Q    Q       H        Q    Q    Q       H        E  E  E  E   
--------------------------|--------------------------|-----------------------|
--------------------------|--3-----------------------|-----------------------|
-----------5----4----5----|--------------------------|-----------------------|
--------------------------|-----------3----2---------|-----------------------|
--3--------7----7----3----|--2------------------3----|--5--------L--2--3--5--|
--5-----------------------|--------------------------|-----------------------|
--------------------------|--------------------------|-----------------------|


  Q.     E  H           Q.     E  Q    E  S S    H        Q.     S S  
---------------------|------------------------|----------------------|
---------------------|------------6----L--5-4-|----------------------|
---------4--7--------|------------------------|--7-------------------|
--5------------------|---------3--L-----------|-----------3------2-1-|
--5------2--5--------|--3---------------------|--5-------------------|
---------------------|--5---------------------|----------------------|
---------------------|------------------------|----------------------|


           |----3----|                                       |----3----|     
  H        Q    Q    Q       Q.     E  H           Q.     E  Q    Q    Q     
--------------------------|---------------------|---------------------------|
--------------------------|---------------------|------------6----5----6----|
--------------------------|---------4--7--------|---------------------------|
--------------------------|--5------------------|------------3----2----3----|
--5--------3----2----3----|--5------2--5--------|--3------3-----------------|
--------------------------|---------------------|--5------------------------|
--------------------------|---------------------|---------------------------|


  Q.     E  H           Q.     E  H           Q.     E  H         
---------6-----------|------------5--------|--6------------------|
--8---------8--------|---------------------|---------6--6--------|
---------3-----------|---------------------|---------------------|
--5---------5--------|--5------7--L--------|---------------------|
---------------------|---------------------|---------------------|
---------------------|---------------------|---------------------|
---------------------|---------------------|---------------------|


  H        Q    Q       Q.     E  H           H        Q    Q     
-----------6----7----|--8------------------|-----------8----9----|
---------------------|---------8--8--------|---------------------|
---------------------|---------------------|-----------5----6----|
--3------------------|---------------------|--5------------------|
---------------------|---------------------|--7------------------|
---------------------|---------------------|---------------------|
---------------------|---------------------|---------------------|


                                               |----3----|     
   E.  S E  S S E  S S E  S S    E  S S E  S S Q    Q    Q     
--10--------------------------|----------------8----8----9----|
------------------------------|-------------------------------|
---7---7------7------7------7-|-------7------7-5----5----6----|
------------------------------|-------------------------------|
------------------------------|-------------------------------|
------------------------------|-------------------------------|
------------------------------|-------------------------------|


                                               |----3----|       
   E.  S E  S S E  S S E  S S    E  S S E  S S Q    Q    Q       
--10--------------------------|----------------8----8----7-----||
------------------------------|--------------------------------||
---7---7------7------7------7-|-------7------7-5----5----4-----||
------------------------------|--------------------------------||
------------------------------|--------------------------------||
------------------------------|--------------------------------||
------------------------------|--------------------------------||



*************************************

Duration Legend
---------------
W - whole
H - half
Q - quarter
E - 8th
S - 16th
T - 32nd
X - 64th
. - note dotted
|-n-|  - n-tuplets

*************************************
Suggest correction
Give kudos to tab author, rate the tab!
1 2 3 4 5
comments
print report bad tab
guest
You may want to rate the tab now too:
select rating
Wanna post a correction for this tab? Suggest correction