Oops, an error
Loading. Please wait.

Pokemon - Verdanturf Town Theme Tab

version 1
version 1

Whole song

Interactive

1,515 views 9 this week
no commentswrite comment
1 2 3 4 5
please rate
add to favorites
launch autoscroll
font size
0
reset
how to read this tab
guitar tuner
Autoscroll
slow
fast
+/-
esc
set tempo
stop
Help us to improve Ultimate-Guitar.com Take our survey!
×
Author
Tabbers playing skills
advanced +
                                                                  Pokemon
                                            VERDANTURF TOWN THEME       
                                          Ruby - Sapphire - Emerald




Melody


     H        E  E  E  E       H.           Q       H.           Q     
E||-----------------------||---2------------3----|--0------------2----|
B||-----------------3--5--||---------------------|--------------------|
G||--------------2--------||*--------------------|--------------------|
D||-----------------------||*--------------------|--------------------|
A||-----------------------||---------------------|--------------------|
E||-----------------------||---------------------|--------------------|


  H.           Q       Q    Q      E  E  E  E     Q.     H        E   
--------------------|--------------------------|--7------------------|
--2------------3----|-------2----5g3--2--3--5--|---------------------|
--------------------|--4-----------------------|---------7-----------|
--------------------|--------------------------|---------------------|
--------------------|--------------------------|---------------------|
--------------------|--------------------------|---------------------|


  H        Q    Q       Q    Q    Q    Q       Q    Q      E  E  E  E   
----------------2----|--0-------------------|--------------------------|
---------------------|-------3----2---------|--2----3----5g3--2--3--5--|
---------------------|-----------------4----|--------------------------|
---------------------|----------------------|--------------------------|
---------------------|----------------------|--------------------------|
---------------------|----------------------|--------------------------|


    H.           Q         H.           Q         E  E  E  E  E  E  Q     
--0g2------------3----|--2g0------------2----|---------------------------|
----------------------|----------------------|--5g3--2--0--2--3--2--0----|
----------------------|----------------------|---------------------------|
----------------------|----------------------|---------------------------|
----------------------|----------------------|---------------------------|
----------------------|----------------------|---------------------------|


  E  E  E  E  E  E  E  E     Q.       E  H           H        Q    Q     
--------------------2-----|--7--------------------|----------------2----|
--L--------2--3--5-----3--|-----------------------|---------------------|
-----3--4-----------------|---------9g7--L--------|--L------------------|
--------------------------|-----------------------|---------------------|
--------------------------|-----------------------|---------------------|
--------------------------|-----------------------|---------------------|


  Q    Q    Q    Q       Q    Q      E  E  E  E     H.           Q     
--0-------------------|------------5g3--2--3--5--|--7-----------------|
-------3----2---------|--2----3------------------|--8------------7----|
-----------------4----|--------------------------|--7------------7----|
----------------------|--------------------------|--------------------|
----------------------|--------------------------|--------------------|
----------------------|--------------------------|--------------------|


  H        Q    Q       H.           Q       Q    Q    Q    Q     
---------------------|--5-----------------|----------------------|
--5--------7----8----|--7------------7----|--3----3----5----7----|
--6--------7----9----|--6------------7----|--4----2----6----7----|
--7--------7----9----|--------------------|--4----4----7----7----|
---------------------|--------------------|----------------------|
---------------------|--------------------|----------------------|


  H.           Q       Q    Q    Q    Q       H.           Q     
--3------------3----|--5-------------------|--3------------5----|
--3------------5----|--7----8----7----5----|--3-----------------|
--4-----------------|------------7----6----|--4-----------------|
--------------------|----------------------|--------------------|
--------------------|----------------------|--------------------|
--------------------|----------------------|--------------------|


  H        E  E  E  E     H.           Q        Q     Q     Q    E  E   
--------------------5--|--7------------7----|---9----10----12----9--5--|
--7-----------7--8-----|--8------------8----|--10----12----14-------7--|
--7--------------------|--------------------|--------------------------|
--7--------------------|--------------------|--------------------------|
-----------------------|--------------------|--------------------------|
-----------------------|--------------------|--------------------------|


  H.           Q       Q    Q    Q    Q       Q.     Q.     Q     
--L-----------------|--7----5--------------|---------------------|
--L------------7----|------------8----7----|--7------8-----------|
--------------------|----------------------|--7------7------7----|
--------------------|----------------------|----------------9----|
--------------------|----------------------|---------------------|
--------------------|----------------------|---------------------|


  H        Q    Q       Q.     Q.     Q       Q    Q      E  E  E  E  99x
---------------------|---------------------|---------------------------||
----------------3----|--7------8------8----|--L---------5g3--2--3--5---||
--L--------4----4----|--7------7------9----|--L-----------------------*||
--L--------5---------|---------------------|--------------------------*||
---------------------|---------------------|---------------------------||
---------------------|---------------------|---------------------------||




Duration Legend
---------------
W - whole
H - half
Q - quarter
E - 8th
S - 16th
T - 32nd
X - 64th
. - note dotted
|-n-|  - n-tuplets


Tablature Legend
----------------
L - tied note
x - dead note
g - grace note
(n) - ghost note
> - accentuded note
NH - natural harmonic
AH - artificial harmonic
TH - tapped harmonic
SH - semi harmonic
PH - pitch harmonic
h - hammer on
p - pull off
b - bend
br - bendRelease
pb - preBend
pbr - preBendRelease
brb - bendReleaseBend
\n/ - tremolo bar dip
\n - tremolo bar dive
-/n - tremolo bar Release up
/n\ - tremolo bar inverted dip
/n - tremolo bar return
-\n - tremolo bar Release down
S - shift slide
s - legato slide
/ -  slide into from below or out of upwards
\ -  slide into from above or out of downwards
~ - vibrato
W - wide vibrato
tr - trill
TP - tremolo picking
T - tapping
S - slap
P - pop
< - fade in
^ - brush up
v - brush down
Suggest correction
What's this?
You can suggest a correction to this tab. Community and Mods will review your correction and vote to approve or reject it.
comments
We did not receive enough feedback on this tab! Please rate:
print report bad tab
1 2 3 4 5
guest
You may want to rate the tab now too:
select rating
Please do not post tabs as comments. Select "correction" instead!