Oops, an error
Loading. Please wait.

Pokemon - Viridian Forest Bass Tab

version 1
version 1

Whole song

Interactive

1,121 views 6 this week
no commentswrite comment
1 2 3 4 5
please rate
add to favorites
launch autoscroll
font size
0
reset
guitar tuner
Autoscroll
slow
fast
+/-
esc
set tempo
stop
Help us to improve Ultimate-Guitar.com Take our survey!
×
Contributor
aig91 8,809
                                                Pokemon
                                         VIRIDIAN FOREST THEME	
                                          Red - Blue - Yellow


Note:  This is NOT the melody. This is only the accompanying bass part.
If you want to learn the melody, look at the guitar tab and Guitar Pro
tab I have uploaded along with this one. 



      E  Q    E  E  E  Q       E  Q    E  E  E  Q       E  Q    E  E  E  Q     
G||-------------------------|------------------------|------------------------|
D||*--2----------------4----|--2----------------4----|--2----------------4----|
A||*------------------------|------------------------|------------------------|
E||-----------0-----0-------|----------0-----0-------|----------0-----0-------|


  E  Q    E  E  E  Q       E  Q    E  E  E  Q       E  Q    E  E  E  Q     
------------------------|------------------------|------------------------|
--2----------------4----|--2----------------4----|--2----------------4----|
------------------------|------------------------|------------------------|
----------0-----0-------|----------0-----0-------|----------0-----0-------|


  E  Q    E  E  E  Q       E  Q    E  E  E  Q       E  Q    E  E  E  Q     
------------------------|------------------------|------------------------|
--2----------------4----|--2----------------4----|--2----------------4----|
------------------------|------------------------|------------------------|
----------0-----0-------|----------0-----0-------|----------0-----0-------|


  E  Q    E  E  E  Q       E  Q    E  E  E  Q       E  Q    E  E  E  Q     
------------------------|------------------------|------------------------|
--2----------------4----|--2----------------4----|--2----------------4----|
------------------------|------------------------|------------------------|
----------0-----0-------|----------0-----0-------|----------0-----0-------|


  E  Q    E  E  E  Q       E  Q    E  E  E  Q       E  Q    E  E  E  Q     
------------------------|------------------------|------------------------|
--2----------------4----|--2----------------4----|--2----------------4----|
------------------------|------------------------|------------------------|
----------0-----0-------|----------0-----0-------|----------0-----0-------|


  E  Q    E  E  E  Q                                                     
------------------------|-------|-------|-------|-------|-------|-------|
--2----------------4----|-------|-------|-------|-------|-------|-------|
------------------------|-------|-------|-------|-------|-------|-------|
----------0-----0-------|-------|-------|-------|-------|-------|-------|


-------|-------|-------|-------|-------|-------|-------|-------|-------|-------|
-------|-------|-------|-------|-------|-------|-------|-------|-------|-------|
-------|-------|-------|-------|-------|-------|-------|-------|-------|-------|
-------|-------|-------|-------|-------|-------|-------|-------|-------|-------|


                                  W                   W                 
-------|-------|-------|-------|-------------------|-------------------|
-------|-------|-------|-------|--2----------------|-------------------|
-------|-------|-------|-------|-------------------|--3----------------|
-------|-------|-------|-------|-------------------|-------------------|


  W                   W                   W                   W                 
-------------------|-------------------|-------------------|-------------------|
-------------------|-------------------|--2----------------|--4----------------|
--5----------------|-------------------|-------------------|-------------------|
-------------------|--6----------------|-------------------|-------------------|


  W                   W                                                         
-------------------|--3----------------|-------------------|-------------------|
--5----------------|-------------------|-------------------|-------------------|
-------------------|-------------------|-------------------|-------------------|
-------------------|-------------------|-------------------|-------------------|


                                          E  Q    E  E  E  Q     
-------------------|-------------------|------------------------|
-------------------|-------------------|--2----------------4----|
-------------------|-------------------|------------------------|
-------------------|-------------------|----------0-----0-------|


  E  Q    E  E  E  Q       E  Q    E  E  E  Q       E  Q    E  E  E  Q     
------------------------|------------------------|------------------------|
--2----------------4----|--2----------------4----|--2----------------4----|
------------------------|------------------------|------------------------|
----------0-----0-------|----------0-----0-------|----------0-----0-------|


  E  Q    E  E  E  Q       E  Q    E  E  E  Q       E  Q    E  E  E  Q     
------------------------|------------------------|------------------------|
--2----------------4----|--2----------------4----|--2----------------4----|
------------------------|------------------------|------------------------|
----------0-----0-------|----------0-----0-------|----------0-----0-------|


  E  Q    E  E  E  Q    Repeat infinitely
-------------------------||
--2----------------4----*||
------------------------*||
----------0-----0--------||




Duration Legend
---------------
W - whole
H - half
Q - quarter
E - 8th
S - 16th
T - 32nd
X - 64th
. - note dotted
|-n-|  - n-tuplets


Tablature Legend
----------------
L - tied note
x - dead note
g - grace note
(n) - ghost note
> - accentuded note
NH - natural harmonic
AH - artificial harmonic
TH - tapped harmonic
SH - semi harmonic
PH - pitch harmonic
h - hammer on
p - pull off
b - bend
br - bendRelease
pb - preBend
pbr - preBendRelease
brb - bendReleaseBend
\n/ - tremolo bar dip
\n - tremolo bar dive
-/n - tremolo bar Release up
/n\ - tremolo bar inverted dip
/n - tremolo bar return
-\n - tremolo bar Release down
S - shift slide
s - legato slide
/ -  slide into from below or out of upwards
\ -  slide into from above or out of downwards
~ - vibrato
W - wide vibrato
tr - trill
TP - tremolo picking
T - tapping
S - slap
P - pop
< - fade in
^ - brush up
v - brush down
comments
We did not receive enough feedback on this tab! Please rate:
print report bad tab
1 2 3 4 5
I want to post or [tab]
guest
You may want to rate the tab now too:
select rating
Please do not post tabs as comments. Select "correction" instead!