Oops, an error
Loading. Please wait.

Pokemon Heart Gold And Silver Soul - Rival Theme Tab

2,273 views 9 this week
no commentswrite comment
1 2 3 4 5
please rate
add to favorites
launch autoscroll
font size
0
reset
how to read this tab
guitar tuner
Autoscroll
slow
fast
+/-
esc
set tempo
stop
Help us to improve Ultimate-Guitar.com Take our survey!
×
Author
manju 350
Game: Pokémon Silver Soul and Heart Gold
Title: Rival Theme
Original Composer: Junichi Matsuda
Re-mixed by: Warinside
Tabbed by: Manju a.k.a Me...

Youtube link: http://www.youtube.com/watch?v=iwBvfbqcmYg

STANDARD TUNING.
Very easy to play for those who have experience with guitars.


NOTICE: This was played with two guitars, but I simplified to one guitar, so a riff
 or two might be missing... 
It's not accurate as I played and tabbed by ear.




Intro: Start with pick scrape

RIFF GUITAR: Repeat [A] and [B] in order twice.

E|-------------------------------|
B|-------------------------------|
G|---------------------------9---|
D|--3--3/8--8--8--8/11--11---9---|
A|--3--3/8--8--8--8/11--11---7---|
E|--2--2/6--6--6--6/9---9--------|

[A]                              
E|------------------------------------------------|
B|------------------------------------------------|
G|--8--11--13---8--11--13---8--11--13---8/11x11---|
D|--8--11--13---8--11--13---8--11--13---8/11x11---|
A|--6--9---11---6--9---11---6--9---11---6/9-x9----|
E|--6--9---11---6--9---11---6--9---11---6/9-x9----|

[B]
E|-------------------------------------------|
B|-------------------------------------------|
G|--6--9--11---6--9--11---6--9--11---6/9x9---|
D|--6--9--11---6--9--11---6--9--11---6/9x9---|
A|--4--7--9----4--7--9----4--7--9----4/7x7---|
E|--4--7--9----4--7--9----4--7--9----4/7x7---|


Melody:

E|----------------------------------------|
B|----------------------------------------|
G|--8~----8--11--10--8--6--8--10~---13~---|
D|-----8----------------------------------|
A|----------------------------------------|
E|----------------------------------------|


E|---------------------------------------|
B|---------------------------------------|
G|--8~----8--11--10--8--6--8--10~---6~---|
D|-----8---------------------------------|
A|---------------------------------------|
E|---------------------------------------|


E|--------------------------------|
B|--------------------------------|
G|--------------------------------|
D|--9~--11--9--8~---8-8-8-8-8-8---|
A|------------------8-8-8-8-8-8---|
E|------------------6-6-6-6-6-6---|


E|---------------------------------|
B|---------------------------------|
G|---------------------------------|
D|--9~--11--9--13~-----------------|
A|-------------------6-6-6-6-6-6---|
E|-------------------6-6-6-6-6-6---|


E|------------------------------------------------|
B|-----------9--12--12b14--12---11---10---9---8---|
G|-9~--8--9---------------------------------------|
D|------------------------------------------------|
A|------------------------------------------------|
E|------------------------------------------------|


Riff guitar:

E|-----------------------------------------------------------------------|
B|-----------------------------------------------------------------------|
G|--8--------------------------------------------------------------6-----|
D|--8--------------------------------------------------------------6-----|
A|--6--6-6-6-6-6-6-6-6-6-6-6-6-6-6-6-6---2-2-2-2-2-2-2-2-2-2-2-2---4-----|
E|--6--------------------------------------------------------------------|
      [ PM --------------------------------------------------------------|


Melody guitar:

E|--15------18--16-------------------15-----------|
B|------16------------------16--18---18b20--16~---|
G|------------------16--18------------------------|
D|------------------------------------------------|
A|------------------------------------------------|
E|------------------------------------------------|


Riff guitar: Play [A] and by [B] say way as you did at the beginning twice.


E|---------------|
B|---------------|
G|---------------|
D|--9--8--6--3---|
A|--9--8--6--3---|
E|--7--6--4--1---|


[A]
E|----------------------------------------|
B|----------------------------------------|
G|--3--6--8---3--6--8---3--6--8---3/6x6---|
D|--3--6--8---3--6--8---3--6--8---3/6x6---|
A|--1--4--6---1--4--6---1--4--6---1/4x4---|
E|--1--4--6---1--4--6---1--4--6---1/4x4---|

[B]
E|---------------------------------------------|
B|---------------------------------------------|
G|---------------------------------------------|
D|--6--9--11---6--9--11---6--9--11---6/11x11---|
A|--6--9--11---6--9--11---6--9--11---4/11x11---|
E|--4--7--9----4--7--9----4--7--9----4/9-x9----|


Melody guitar: This plays on this time with [A] and [B], it's hard to hear, but it'
s played along with Riff [A] and [B]

[A]
E|---------------------------------------|
B|--------------------7/9----------------|
G|-----6--8--9--8--6-------9--8----6x6---|
D|--8----------------------------8-------|
A|---------------------------------------|
E|---------------------------------------|

[B]
E|--------------------------------------|
B|-------------------5/7----------------|
G|----4--6--7--6--4-------7--6----4x4---|
D|--6---------------------------6-------|
A|--------------------------------------|
E|--------------------------------------|


Rest: Piano, Drum and Bass. No guitar...

. . .


Melody guitar:

E|--------------------------------|
B|--------------------------------|
G|--------------------------------|
D|--9~--11--9--8~---8-8-8-8-8-8---|
A|------------------8-8-8-8-8-8---|
E|------------------6-6-6-6-6-6---|


E|---------------------------------|
B|---------------------------------|
G|---------------------------------|
D|--9~--11--9--13~-----------------|
A|-------------------6-6-6-6-6-6---|
E|-------------------6-6-6-6-6-6---|


E|------------------------------------------------|
B|-----------9--12--12b14--12---11---10---9---8---|
G|-9~--8--9---------------------------------------|
D|------------------------------------------------|
A|------------------------------------------------|
E|------------------------------------------------|


Riff guitar:

E|-----------------------------------------------------------------------|
B|-----------------------------------------------------------------------|
G|--8--------------------------------------------------------------6-----|
D|--8--------------------------------------------------------------6-----|
A|--6--6-6-6-6-6-6-6-6-6-6-6-6-6-6-6-6---2-2-2-2-2-2-2-2-2-2-2-2---4-----|
E|--6--------------------------------------------------------------------|
      [ PM --------------------------------------------------------------|


Melody guitar:

E|--15------18--16-------------------15-----------|
B|------16------------------16--18---18b20--16~---|
G|------------------16--18------------------------|
D|------------------------------------------------|
A|------------------------------------------------|
E|------------------------------------------------|


Riff guitar:

E|--------------------5---|   Natural hormonic for E string 5th fret and B string 5 fret. 
B|--------------------5---|
G|------------------------|
D|--9--8--6--3------------|   
A|--9--8--6--3---6--------|
E|--7--6--4--1---6--------|


E|--------------------------------------------------|
B|--------------------------------------------------|
G|--6x6---------------------------------------------|
D|--6x6----6--9--11---6--9--11---6--9--11---6/9x9---|
A|--4x4----6--9--11---6--9--11---6--9--11---6/9x9---|
E|--4x4----4--7--9----4--7--9----4--7--9----4/7x7---|


E|----------------------------------------|
B|----------------------------------------|
G|--3--6--8---3--6--8---3--6--8---3/6x6---|
D|--3--6--8---3--6--8---3--6--8---3/6x6---|
A|--1--4--6---1--4--6---1--4--6---1/4x4---|
E|--1--4--6---1--4--6---1--4--6---1/4x4---|


E|---------------------------------------------|
B|---------------------------------------------|
G|---------------------------------------------|
D|--6--9--11---6--9--11---6--9--11---6/11x11---|
A|--6--9--11---6--9--11---6--9--11---4/11x11---|
E|--4--7--9----4--7--9----4--7--9----4/9-x-9---|


Melody:

E|------------------------------------------|
B|------------------------------------------|
G|--7-8~----8--11--10--8--6--8--10~---13~---|
D|-------8----------------------------------|
A|------------------------------------------|
E|------------------------------------------|


E|---------------------------------------|
B|---------------------------------------|
G|--8~----8--11--10--8--6--8--10~---6~---|
D|-----8---------------------------------|
A|---------------------------------------|
E|---------------------------------------|


E|--------------------------------|
B|--------------------------------|
G|--------------------------------|
D|--9~--11--9--8~---8-8-8-8-8-8---|
A|------------------8-8-8-8-8-8---|
E|------------------6-6-6-6-6-6---|


E|---------------------------------|
B|---------------------------------|
G|---------------------------------|
D|--9~--11--9--13~-----------------|
A|-------------------6-6-6-6-6-6---|
E|-------------------6-6-6-6-6-6---|


E|------------------------------------------------|
B|-----------9--12--12b14--12---11---10---9---8---|
G|-9~--8--9---------------------------------------|
D|------------------------------------------------|
A|------------------------------------------------|
E|------------------------------------------------|


Riff guitar:

E|-----------------------------------------------------------------------|
B|-----------------------------------------------------------------------|
G|--8--------------------------------------------------------------6-----|
D|--8--------------------------------------------------------------6-----|
A|--6--6-6-6-6-6-6-6-6-6-6-6-6-6-6-6-6---2-2-2-2-2-2-2-2-2-2-2-2---4-----|
E|--6--------------------------------------------------------------------|
      [ PM --------------------------------------------------------------|


Melody guitar:

E|--15------18--16-------------------15-----------|
B|------16------------------16--18---18b20--16~---|
G|------------------16--18------------------------|
D|------------------------------------------------|
A|------------------------------------------------|
E|------------------------------------------------|


Riff guitar:

E|---------------|
B|---------------|
G|---------------|
D|--9--8--6--3---|
A|--9--8--6--3---|
E|--7--6--4--1---|



Same as the beginning part, repeat [A] and [B] in order twice, with melody. 

[A]
E|----------------------------------------|
B|----------------------------------------|
G|--3--6--8---3--6--8---3--6--8---3/6x6---|
D|--3--6--8---3--6--8---3--6--8---3/6x6---|
A|--1--4--6---1--4--6---1--4--6---1/4x4---|
E|--1--4--6---1--4--6---1--4--6---1/4x4---|

[B]
E|---------------------------------------------|
B|---------------------------------------------|
G|---------------------------------------------|
D|--6--9--11---6--9--11---6--9--11---6/11x11---|
A|--6--9--11---6--9--11---6--9--11---4/11x11---|
E|--4--7--9----4--7--9----4--7--9----4/9-x-9---|


Outro:

E|--------------------------------------|
B|--------------------------------------|
G|--3--6--8---3--6--8---3--6--7---8x8---|
D|--3--6--8---3--6--8---3--6--7---8x8---|
A|--1--4--6---1--4--6---1--4--5---6x6---|
E|--1--4--6---1--4--6---1--4--5---6x6---|





Tablature Legend
----------------

b    - bend
~    - vibrato
x    - on rhythm slash represents muted slash
PM   - Palm Mute
/    - slide up
Suggest correction new What's this?
You can suggest a correction to this tab. Community and Mods will review your correction and vote to approve or reject it.
comments
We did not receive enough feedback on this tab! Please rate:
print report bad tab
1 2 3 4 5
guest
You may want to rate the tab now too:
select rating
Please do not post tabs as comments. Select "correction" instead!