Oops, an error
Loading. Please wait.

Pokemon Snap - The Valley Tab

147 views 1 this week
no commentswrite comment
1 2 3 4 5
3 more votes to show rating
add to favorites
launch autoscroll
font size
0
reset
how to read this tab
guitar tuner
×
Best way to learn
"Pokemon Snap - The Valley"
Autoscroll
slow
fast
+/-
esc
set tempo
stop
Author
Difficulty
intermediate
(My first tab, I tried my best)

E|-----------------------------------------------------------------------|
B|-----------------------------------------------------------------------|
G|--------------------0--------------------------------0-----------------|
D|--------2--------2-----2-----2--0--2-----------2--0-----3-----0--------|
A|--0--3-----0--3-----------3-----------0--2--3--------------3-----3--2--|
E|-----------------------------------------------------------------------|


E|--5-----5--4-----4--3-----3--------------5-----5--4-----4--3-----3--------------|
B|--5--5-----5--5-----5--5-----7--5--1-----5--5-----5--5-----5--5-----7--5--3--1--|
G|--------------------------------------2-----------------------------------------|
D|--------------------------------------------------------------------------------|
A|--------------------------------------------------------------------------------|
E|--------------------------------------------------------------------------------|

E|--------------------------|
B|--------------------------|
G|--------------------------|
D|--2-----0-----------------|
A|-----0-----2--3--2-----0--|
E|--------------------3-----|


E|-----------------------------------------|
B|-----------------------------------------|
G|--------------------0--0--2--0--2--------|
D|--------------2--2----------------4--0---|
A|--0--2--3--0-----------------------------|
E|-----------------------------------------|

E|--------------------------------------------------------------------------|
B|--------------------------------------------------------------------------|
G|--------------------------------------------------1-----------------------|
D|-----------0--2--------------------0--3--2--0--2-----3--0--2--0-----------|
A|--0--2--3--------3--0--3--0--2--3--------------------------------3--2--0--|
E|--------------------------------------------------------------------------|

         {Repeat indefinitely}

You can hammer on and pull off for that cowboy western whistle that comes in
E|--0h5p0h5p0--|
B|-------------|
G|-------------|
D|-------------|
A|-------------|
E|-------------|

,Or if you prefer

E|---5-5---|
B|--5-5-5--|
G|---------|
D|---------|
A|---------|
E|---------|
Suggest correction
Give kudos to tab author, rate the tab!
1 2 3 4 5
comments
print report bad tab
guest
You may want to rate the tab now too:
select rating
Wanna post a correction for this tab? Suggest correction