Oops, an error
Loading. Please wait.

Portal - Still Alive bass

version 1
version 1

Whole song

31,168 views 9 this week
3 commentsread comments
1 2 3 4 5
x 14
add to favorites
×
Save as Personal and add changes to this tab that will be seen only by you. Learn more ›
×
You can save this tab as Personal to edit and correct it or add notes. All changes will be seen only by you. Learn more »
launch autoscroll
font size
0
reset
guitar tuner
edit
Autoscroll
slow
fast
+/-
esc
set tempo
stop
Author
Difficulty
Piano or guitar intro

 (0:44) "still alive..."
G|---------------------------------------|
D|---------------------------------------|
A|--17\\\\\5--5----5--5----5--5----5--5--|
E|-------------7--7----7--7----7--7------|

 (0:53) "angry..."
G|--------------------------------|
D|--------------------------------|
A|-5--5----5--5----5--5----5--5---|
E|-----7--7----7--7----7--7----7--|

 (1:01) "Even though you broke my heart...
G|--------------------|---------------|
D|-------45-----------|---------------|
A|--7--77-----------4-|-5--5----5--5--|
E|-7---------5-55-7---|-----7--7------|

 (1:09) "pieces...
G|--------------------------------|
D|--------------------------------|
A|-5--5----5--5----5--5----5--5---|
E|-----7--7----7--7----7--7----7--|

 (1:17) "As they burned, it hurt because...
G|-------------------------------|
D|-------45----------------------|
A|--7--77------------4-----------|
E|-7---------5--55-7--5-66666666-|

 (1:23) "points of data
G|--------------------------------------------------------------------------|
D|--------------------------------------------------------------------------|
A|-88-8-----------88-8-88-8-----------8875-----------88-77-55------8-----7--|
E|------88-8-66-6-----------88-8-66-6------666---888----------88-66-6--55-5-|

 (1:37) "still alive..."
G|--------------------------------|
D|--------------------------------|
A|-5--5----5--5----5--5----5--5---|
E|-----7--7----7--7----7--7----7--|

Interlude (1:44)

 (2:01) "Mesa..."
G|--------------------------------|
D|--------------------------------|
A|-5--5----5--5----5--5----5--5---|
E|-----7--7----7--7----7--7----7--|

 (2:09) "Anyway this cake is great..."
G|-------------------------------|
D|-------45----------------------|
A|--7--77------------4-----------|
E|-7---------5--55-7--5-66666666-|

 (2:15) "me still talking..."
G|--------------------------------------------------------------------------|
D|--------------------------------------------------------------------------|
A|-88-8-----------88-8-88-8-----------8875-----------88-77-55------8-----7--|
E|------88-8-66-6-----------88-8-66-6------666---888----------88-66-6--55-5-|

 (2:30) "still alive..."
G|--------------------------------|
D|--------------------------------| (x3) ...End
A|-5--5----5--5----5--5----5--5---|
E|-----7--7----7--7----7--7----7--|

This game is a TRIP if you ever get a chance to play it play it, and to top it off the 
ends with this catchy, albeit a little creepy, song.  It's a great game and it ties into 
Life 2.

            
            
Suggest correction
Creating personal tab
Creating personal tab
You can edit any tab online and save it as your Personal.

You can edit, replace or remove any tab part or add personal notes – all changes will be seen only by you.

Personal tabs can be accessed anytime from any device, even offline.
Learn more »
comments
print report bad tab
3 comments total.
+2 reply
Dan_man987 93 Oct 25, 2008 04:27 PM

Great tab, the only bass one for this song. One quick thing, tough. The bass plays a little fill after the first two sections "still alive" and "angry, after the "peices" section, after the second "still alive" section, and after each repeat of the "still alive" outro (omit the last 7). Listen to the song to get what I mean. Anyway, the fill goes like this:

|----------------------|
|--9--9-9-9--7---------|
|----------------------|
|----------------------|

-1 reply
Dan_man987 93 Oct 25, 2008 04:35 PM

Also, I think there is an extra note in the "as they burned" and "cake is great" sections, a 7 on the A string:

|--------------------|--------------|
|-------45-----------|--------------|
|--7--77--7--------4-|-5--5----5--5-|
|-7---------5-55-7---|-----7--7-----|

+1 reply
Dan_man987 93 Oct 25, 2008 04:41 PM

Wait, sorry. Never mind on that last correction. there's no extra 7.

guest
You may want to rate the tab now too:
select rating
Wanna post a correction for this tab? Suggest correction