Oops, an error
Loading. Please wait.

Portal - Still Alive Tab

version 1
version 1

Whole song

Interactive

256,764 views 147 this week
12 commentsread comments
1 2 3 4 5
x 42
add to favorites
launch autoscroll
font size
0
reset
how to read this tab
guitar tuner
×
Best way to learn
"Portal - Still Alive"
Autoscroll
slow
fast
+/-
esc
set tempo
stop
Author
-------------------------------------------------------------------------------
                             STILL ALIVE - Portal
-------------------------------------------------------------------------------
Tabbed by: Ryan
Email: jetfuel888@gmail.com

Cool song from a great game.  Massive kudos to MTG for the tip.

Notice, there are two guitars (one acoustic and one electric)
Tuning:EADGBE Standard

Acoustic Guitar

VERSE PART 1
e|-----2-------2-------2-------2-----------------------------------| -
B|---3---3---3---3---3---3---3---3---------------------------------|  |
G|-2-------4-------2-------4---------------------------------------|  |
D|-----------------------------------------------------------------|  |
A|-D-------Bm------D-------Bm--------------------------------------|  |
E|-----------------------------------------------------------------|x2|Main
VERSE PART 2                                                          |Verse
e|-----3-------3-------3-------3-------2-------2-------2-------2---|  |
B|---3---3---3---3---3---3---3---3---3---3---3---3---3---3---3---3-|  |
G|-4-------4-------2-------2-------2-------4-------2-------4-------|  |
D|-----------------------------------------------------------------|  |
A|-?---------------Dsus4?----------D-------Bm------D-------Bm------|  |
E|-----------------------------------------------------------------|  -

MAIN VERSE ENDING
e|-------5-|
B|---3-6---|
G|-3-------|
D|---------|
A|---------|
E|---------|

[Pre-Chorus]
     V - Very quiet A (if even there) V
e|---5-------3--------------------|---5-------3--------------------|
B|-6---6---5---5---3---3-5-6---6--|-6---6---5---5---3---3-5-6---6--|
G|--------------------------------|--------------------------------|
D|--------------------------------|--------------------------------|
A|--------------------------------|--------------------------------|
E|--------------------------------|--------------------------------|

[Chorus]
e|---3---3---3---3---5---5---5---5---3---3---3---3-|
B|-3---3---5---5---6---6---3---3---3---3---2---2---|
G|-------------------------------------------------|
D|-------------------------------------------------|
A|-------------------------------------------------|
E|-------------------------------------------------|

Memorize the main verse.  It's very easy and very repetitive.
=====================================================================

Electric Guitar

[Pre-Chorus]
e|-------------------------------|
B|-------------------------------|
G|-------------------------------|
D|---------5--3---------5--3-----|
A|-xxxx-3--3--1--3---3--3--1--3--| There are mutes on the
E|-xxxx-1--------1---1--------1--| beats in between each chord.

[Chorus]
e|---------------------------|
B|---------------------------|
G|----------5-4-----------6--|
D|------5-5-3-2-7-5----6--4--|
A|--5-5-3-3-----5-3-5--4-----|
E|--3-3-------------3--------|

[Verse]
e|------------------------------------|
B|------------------------------------|
G|-7-6-----------------------7-6------|
D|-5-4-9-7------------7------5-4-9-7--|
A|-----7-5------9-7-9-5----------7-5--|
E|--------------7-5-7-----------------|

                -ORDER-
ACOUSTIC:                       ELECTRIC:
Main Verse x2
Main Verse Ending
Pre-Chorus
Chorus
Main Verse x2
Main Verse Ending
Prechorus                       Prechorus
Chorus                          Chorus
Main Verse x2                   Verse
Main Verse Ending
Prechorus                       Prechorus
Chorus                          Chorus
Verse Part 1                    Verse


Questions/comments/concerns/corrections?  Email me or leave a comment
This is probably a bit confusing, but I'm going to clean it up and
fill in the missing chords once I get them.  If someone could help me out
in terms of the chord names, that would help greatly.

Thanks :)
Suggest correction
comments
print report bad tab
12 comments total. Showing first comments.
+2 reply
TomMorello 10 Jun 06, 2008 06:08 PM

That song is so cute.

0 reply
Just2Rusty 20 Jun 08, 2008 05:11 PM

Hey man, thanks for this tab.

Awesome song and i can't see any mistakes. Win.

+1 reply
meffickz 31 Jun 18, 2008 01:09 PM

Brilliant. Thanks for the effort.

guest
You may want to rate the tab now too:
select rating
Wanna post a correction for this tab? Suggest correction