Oops, an error
Loading. Please wait.

Portal - Still Alive tab

version 7
version 7

Whole song

Interactive

592 views 15 this week
no commentswrite comment
1 2 3 4 5
2 more votes to show rating
add to favorites
×
Save as Personal and add changes to this tab that will be seen only by you. Learn more ›
×
You can save this tab as Personal to edit and correct it or add notes. All changes will be seen only by you. Learn more »
launch autoscroll
font size
0
reset
how to read this tab
guitar tuner
edit
Autoscroll
slow
fast
+/-
esc
set tempo
stop
Author
Difficulty
About this tab version
Based on the original, corrected using the isolated guitar track. Was this info helpful? Yes No
Game: Portal
Song: Still Alive
Tuning: Standard
Tabbed By: Peryitex

[Verse 1]

 [D]          [Bm]         [D]          [Bm]         [D]          [Bm]         [D]          [Bm]
e|-------------------------|-------------------------|-------------------------|-------------------------|
B|-------7-----------7-----|-------7-----------7-----|-------7-----------7-----|-------7-----------7-----|
G|----7-----7-----7-----7--|----7-----7-----7-----7--|----7-----7-----7-----7--|----7-----7-----7-----7--|
D|-7-----------9-----------|-7-----------9-----------|-7-----------9-----------|-7-----------9-----------|
A|-------------------------|-------------------------|-------------------------|-------------------------|
E|-------------------------|-------------------------|-------------------------|-------------------------|

 [Em]                      [A7]                      [D]          [Bm]         [D]          [Bm]
e|-------------------------|-------------------------|-------------------------|-------------------------|
B|-------8-----------8-----|-------8-----------8-----|-------7-----------7-----|-------7-----------7-----|
G|----9-----9-----9-----9--|----6-----6-----6-----6--|----7-----7-----7-----7--|----7-----7-----7-----7--|
D|-9-----------9-----------|-7-----------7-----------|-7-----------9-----------|-7-----------9-----------|
A|-------------------------|-------------------------|-------------------------|-------------------------|
E|-------------------------|-------------------------|-------------------------|-------------------------|

 [D]          [Bm]         [D]          [Bm]         [D]          [Bm]         [D]          [Bm]
e|-------------------------|-------------------------|-------------------------|-------------------------|
B|-------7-----------7-----|-------7-----------7-----|-------7-----------7-----|-------7-----------7-----|
G|----7-----7-----7-----7--|----7-----7-----7-----7--|----7-----7-----7-----7--|----7-----7-----7-----7--|
D|-7-----------9-----------|-7-----------9-----------|-7-----------9-----------|-7-----------9-----------|
A|-------------------------|-------------------------|-------------------------|-------------------------|
E|-------------------------|-------------------------|-------------------------|-------------------------|

 [Em]                      [A7]                      [Bbmaj7]      
e|-------------------------|-------------------------|-------------5-----------|
B|-------8-----------8-----|-------8-----------8-----|---------6---------------|
G|----9-----9-----9-----9--|----6-----6-----6-----6--|-----7-------------------|
D|-9-----------9-----------|-7-----------7-----------|-8-----------------------|
A|-------------------------|-------------------------|-------------------------|
E|-------------------------|-------------------------|-------------------------|

[Verse 2]

 [F]          [C]          [Bb]                      [F]          [C]          [Bb]
e|----5-----------3--------|----6-----------5--------|----5-----------3--------|----6-----------5--------|
B|-6-----6-----5-----5-----|-3-----3--5--6-----6-----|-6-----6-----5-----5-----|-3-----3--5--6-----6-----|
G|-5-----5-----5-----5-----|-3----(3)----5-----5-----|-5-----5-----5-----5-----|-3----(3)----5-----5-----|
D|-------------------------|-------------------------|-------------------------|-------------------------|
A|-------------------------|-------------------------|-------------------------|-------------------------|
E|-------------------------|-------------------------|-------------------------|-------------------------|

 [Gm]         [C]          [F]          [Dm]         [Gm]         [A7]
e|----3-----3-----3-----3--|----5-----5-----5-----5--|----3-----3-----3-----3--|
B|-3-----3-----5-----5-----|-6-----6-----6-----6-----|-3-----3-----2-----2-----|
G|-3-----3-----5-----5-----|-5-----5-----7-----7-----|-3-----3-----2-----2-----|
D|-------------------------|-------------------------|-------------------------|
A|-------------------------|-------------------------|-------------------------|
E|-------------------------|-------------------------|-------------------------|

[Bridge]

 [D]          [Bm]         [D]          [Bm]         [D]          [Bm]         [D]          [Bm]
e|-------------------------|-------------------------|-------------------------|-------------------------|
B|-------7-----------7-----|-------7-----------7-----|-------7-----------7-----|-------7-----------7-----|
G|----7-----7-----7-----7--|----7-----7-----7-----7--|----7-----7-----7-----7--|----7-----7-----7-----7--|
D|-7-----------9-----------|-7-----------9-----------|-7-----------9-----------|-7-----------9-----------|
A|-------------------------|-------------------------|-------------------------|-------------------------|
E|-------------------------|-------------------------|-------------------------|-------------------------|

e|-------2--------3-p2--2--|-------2--------3-p2--2--|-------2--------3-p2--2--|-------2--------3-p2--2--|
B|-------3--------3-----3--|-------3--------3-----3--|-------3--------3-----3--|-------3--------3-----3--|
G|-------2--------2-----2--|-------2--------2-----2--|-------2--------2-----2--|-------2--------2-----2--|
D|-0-----0-----0--0-----0--|-0-----0-----0--0-----0--|-0-----0-----0--0-----0--|-0-----0-----0--0-----0--|
A|-------------------------|-------------------------|-------------------------|-------------------------|
E|-------------------------|-------------------------|-------------------------|-------------------------|

[Verse 3]

 [D]          [Bm]         [D]          [Bm]         [D]          [Bm]         [D]          [Bm]
e|-------------------------|-------------------------|-------------------------|-------------------------|
B|-------7-----------7-----|-------7-----------7-----|-------7-----------7-----|-------7-----------7-----|
G|----7-----7-----7-----7--|----7-----7-----7-----7--|----7-----7-----7-----7--|----7-----7-----7-----7--|
D|-7-----------9-----------|-7-----------9-----------|-7-----------9-----------|-7-----------9-----------|
A|-------------------------|-------------------------|-------------------------|-------------------------|
E|-------------------------|-------------------------|-------------------------|-------------------------|

e|-------2--------3-p2--2--|-------2--------3-p2--2--|-------2--------3-p2--2--|-------2--------3-p2--2--|
B|-------3--------3-----3--|-------3--------3-----3--|-------3--------3-----3--|-------3--------3-----3--|
G|-------2--------2-----2--|-------2--------2-----2--|-------2--------2-----2--|-------2--------2-----2--|
D|-0-----0-----0--0-----0--|-0-----0-----0--0-----0--|-0-----0-----0--0-----0--|-0-----0-----0--0-----0--|
A|-------------------------|-------------------------|-------------------------|-------------------------|
E|-------------------------|-------------------------|-------------------------|-------------------------|

 [Em]    (Guitar 2: [Em7]) [A7]                      [D]          [Bm]         [D]          [Bm]
e|-------------------------|-------------------------|-------------------------|--------------------------|
B|-------8-----------8-----|-------8-----------8-----|-------7-----------7-----|-------7-----------7------|
G|----9-----9-----9-----9--|----6-----6-----6-----6--|----7-----7-----7-----7--|----7-----7-----7-----7---|
D|-9-----------9-----------|-7-----------7-----------|-7-----------9-----------|-7-----------9------------|
A|-------------------------|-------------------------|-------------------------|--------------------------|
E|-------------------------|-------------------------|-------------------------|--------------------------|

e|-------3--------3--3--3--|-------3--------3--3--3--|-------2--------3-p2--2--|-------2--------3-p2--2--|
B|-------3--------3--3--3--|-------2--------2--2--2--|-------3--------3-----3--|-------3--------3-----3--|
G|-------0--------0--0--0--|-------2--------2--2--2--|-------2--------2-----2--|-------2--------2-----2--|
D|-------2--------2--2--2--|-------2--------2--2--2--|-0-----0-----0--0-----0--|-0-----0-----0--0-----0--|
A|-------2--------2--2--2--|-0-----0--------0--0--0--|-------------------------|-------------------------|
E|-0-----0--------0--0--0--|-------------------------|-------------------------|-------------------------|

 [D]          [Bm]         [D]          [Bm]         [D]          [Bm]         [D]          [Bm]
e|-------------------------|-------------------------|-------------------------|-------------------------|
B|-------7-----------7-----|-------7-----------7-----|-------7-----------7-----|-------7-----------7-----|
G|----7-----7-----7-----7--|----7-----7-----7-----7--|----7-----7-----7-----7--|----7-----7-----7-----7--|
D|-7-----------9-----------|-7-----------9-----------|-7-----------9-----------|-7-----------9-----------|
A|-------------------------|-------------------------|-------------------------|-------------------------|
E|-------------------------|-------------------------|-------------------------|-------------------------|

e|-------2--------3-p2--2--|-------2--------3-p2--2--|-------2--------3-p2--2--|-------2--------3-p2--2--|
B|-------3--------3-----3--|-------3--------3-----3--|-------3--------3-----3--|-------3--------3-----3--|
G|-------2--------2-----2--|-------2--------2-----2--|-------2--------2-----2--|-------2--------2-----2--|
D|-0-----0-----0--0-----0--|-0-----0-----0--0-----0--|-0-----0-----0--0-----0--|-0-----0-----0--0-----0--|
A|-------------------------|-------------------------|-------------------------|-------------------------|
E|-------------------------|-------------------------|-------------------------|-------------------------|

 [Em]                      [A7]                      [Bbmaj7]    (Guitar 2: [Bb])
e|-------------------------|-------------------------|----------5--------------|
B|-------8-----------8-----|-------8-----------8-----|-------6-----------------|
G|----9-----9-----9-----9--|----6-----6-----6-----6--|----7--------------------|
D|-9-----------9-----------|-7-----------7-----------|-8-----------------------|
A|-------------------------|-------------------------|-------------------------|
E|-------------------------|-------------------------|-------------------------|

e|-------3--------3--3--3--|-------3--------3--3--3--|-6-----6--6--6--6--6--6--|
B|-------3--------3--3--3--|-------2--------2--2--2--|-6-----6--6--6--6--6--6--|
G|-------0--------0--0--0--|-------2--------2--2--2--|-7-----7--7--7--7--7--7--|
D|-------2--------2--2--2--|-------2--------2--2--2--|-8-----8--8--8--8--8--8--|
A|-------2--------2--2--2--|-0-----0--------0--0--0--|-8-----8--8--8--8--8--8--|
E|-0-----0--------0--0--0--|-------------------------|-6-----6--6--6--6--6--6--|

[Chorus]

 [F]          [C]          [Bb]         [F]          [F]          [C]          [Bb]         [F]
e|-------------------------|-------------------------|-------------------------|-------------------------|
B|-------------5-----x--x--|-3-----x--x--------------|-------------5-----x--x--|-3-----x--x--------------|
G|-2-----x--x--5-----x--x--|-3-----x--x--2-----x--x--|-2-----x--x--5-----x--x--|-3-----x--x--2-----x--x--|
D|-3-----x--x--5-----x--x--|-3-----x--x--3-----x--x--|-3-----x--x--5-----x--x--|-3-----x--x--3-----x--x--|
A|-3-----x--x--3-----x--x--|-1-----x--x--3-----x--x--|-3-----x--x--3-----x--x--|-1-----x--x--3-----x--x--|
E|-1-----x--x--------------|-------------1-----x--x--|-1-----x--x--------------|-------------1-----x--x--|

 [Gm]         [C]          [F]          [Dm]         [Bb]         [A]
e|-3-----3--3--------------|-1-----1--1--5-----5--5--|-6-----6--6--5-----5--5--|
B|-3-----3--3--5-----5--5--|-1-----1--1--6-----6--6--|-6-----6--6--5-----5--5--|
G|-3-----3--3--5-----5--5--|-2-----2--2--7-----7--7--|-7-----7--7--6-----6--6--|
D|-5-----5--5--5-----5--5--|-3-----3--3--7-----7--7--|-8-----8--8--7-----7--7--|
A|-5-----5--5--3-----3--3--|-3-----3--3--5-----5--5--|-8-----8--8--7-----7--7--|
E|-3-----3--3--------------|-1-----1--1--------------|-6-----6--6--5-----5--5--|

[Bridge]

 [D]          [Bm]         [D]          [Bm]         [D]          [Bm]         [D]          [Bm]
e|-------------------------|-------------------------|-------------------------|-------------------------|
B|-------7-----------7-----|-------7-----------7-----|-------7-----------7-----|-------7-----------7-----|
G|----7-----7-----7-----7--|----7-----7-----7-----7--|----7-----7-----7-----7--|----7-----7-----7-----7--|
D|-7-----------9-----------|-7-----------9-----------|-7-----------9-----------|-7-----------9-----------|
A|-------------------------|-------------------------|-------------------------|-------------------------|
E|-------------------------|-------------------------|-------------------------|-------------------------|

e|-------2--------3-p2--2--|-------2--------3-p2--2--|-------2--------3-p2--2--|-------2--------3-p2--2--|
B|-------3--------3-----3--|-------3--------3-----3--|-------3--------3-----3--|-------3--------3-----3--|
G|-------2--------2-----2--|-------2--------2-----2--|-------2--------2-----2--|-------2--------2-----2--|
D|-0-----0-----0--0-----0--|-0-----0-----0--0-----0--|-0-----0-----0--0-----0--|-0-----0-----0--0-----0--|
A|-------------------------|-------------------------|-------------------------|-------------------------|
E|-------------------------|-------------------------|-------------------------|-------------------------|

e|-------------------------|-------------3--p2-------|-------------------------|-------------------------|
B|-------------------------|-------------3-------3---|-------------------------|-------------3--3--x-----|
G|-------------------------|-------------------------|-2-----------------------|-------------4--4--x-----|
D|-------------------------|-------------------------|-0-----------------------|-------------4--4--x-----|
A|-------------------------|-------------------------|-------------------------|-------------2--2--x-----|
E|-------------------------|-------------------------|-------------------------|-------------------------|

[Verse 4]

 [D]          [Bm]         [D]          [Bm]         [D]          [Bm]         [D]          [Bm]
e|-------------------------|-------------------------|-------------------------|-------------------------|
B|-------7-----------7-----|-------7-----------7-----|-------7-----------7-----|-------7-----------7-----|
G|----7-----7-----7-----7--|----7-----7-----7-----7--|----7-----7-----7-----7--|----7-----7-----7-----7--|
D|-7-----------9-----------|-7-----------9-----------|-7-----------9-----------|-7-----------9-----------|
A|-------------------------|-------------------------|-------------------------|-------------------------|
E|-------------------------|-------------------------|-------------------------|-------------------------|

e|-------------------------|
B|-------------------------|
G|-2-----------------------|
D|-0-----------------------|
A|-------------------------|
E|-------------------------|

 [Em]                      [A7]                      [D]          [Bm]         [D]          [Bm]
e|-------------------------|-------------------------|-------------------------|-------------------------|
B|-------8-----------8-----|-------8-----------8-----|-------7-----------7-----|-------7-----------7-----|
G|----9-----9-----9-----9--|----6-----6-----6-----6--|----7-----7-----7-----7--|----7-----7-----7-----7--|
D|-9-----------9-----------|-7-----------7-----------|-7-----------9-----------|-7-----------9-----------|
A|-------------------------|-------------------------|-------------------------|-------------------------|
E|-------------------------|-------------------------|-------------------------|-------------------------|

 [D]          [Bm]         [D]          [Bm]         [D]          [Bm]         [D]          [Bm]
e|-------------------------|-------------------------|-------------------------|-------------------------|
B|-------7-----------7-----|-------7-----------7-----|-------7-----------7-----|-------7-----------7-----|
G|----7-----7-----7-----7--|----7-----7-----7-----7--|----7-----7-----7-----7--|----7-----7-----7-----7--|
D|-7-----------9-----------|-7-----------9-----------|-7-----------9-----------|-7-----------9-----------|
A|-------------------------|-------------------------|-------------------------|-------------------------|
E|-------------------------|-------------------------|-------------------------|-------------------------|

e|-------2--------3-p2--2--|-------2--------3-p2--2--|-------2--------3-p2--2--|-------2--------3-p2--2--|
B|-------3--------3-----3--|-------3--------3-----3--|-------3--------3-----3--|-------3--------3-----3--|
G|-------2--------2-----2--|-------2--------2-----2--|-------2--------2-----2--|-------2--------2-----2--|
D|-0-----0-----0--0-----0--|-0-----0-----0--0-----0--|-0-----0-----0--0-----0--|-0-----0-----0--0-----0--|
A|-------------------------|-------------------------|-------------------------|-------------------------|
E|-------------------------|-------------------------|-------------------------|-------------------------|

 [Em]                      [A7]                      [Bbmaj7]    (Guitar 2: [Bb])
e|-------------------------|-------------------------|----------5--------------|
B|-------8-----------8-----|-------8-----------8-----|-------6-----------------|
G|----9-----9-----9-----9--|----6-----6-----6-----6--|----7--------------------|
D|-9-----------9-----------|-7-----------7-----------|-8-----------------------|
A|-------------------------|-------------------------|-------------------------|
E|-------------------------|-------------------------|-------------------------|

e|-------3--------3--3--3--|-------3--------3--3--3--|-6-----6--6--6--6--6--6--|
B|-------3--------3--3--3--|-------2--------2--2--2--|-6-----6--6--6--6--6--6--|
G|-------0--------0--0--0--|-------2--------2--2--2--|-7-----7--7--7--7--7--7--|
D|-------2--------2--2--2--|-------2--------2--2--2--|-8-----8--8--8--8--8--8--|
A|-------2--------2--2--2--|-0-----0--------0--0--0--|-8-----8--8--8--8--8--8--|
E|-0-----0--------0--0--0--|-------------------------|-6-----6--6--6--6--6--6--|

[Chorus]

 [F]          [C]          [Bb]         [F]          [F]          [C]          [Bb]         [F]
e|-------------------------|-------------------------|-------------------------|-------------------------|
B|-------------5-----x--x--|-3-----x--x--------------|-------------5-----x--x--|-3-----x--x--------------|
G|-2-----x--x--5-----x--x--|-3-----x--x--2-----x--x--|-2-----x--x--5-----x--x--|-3-----x--x--2-----x--x--|
D|-3-----x--x--5-----x--x--|-3-----x--x--3-----x--x--|-3-----x--x--5-----x--x--|-3-----x--x--3-----x--x--|
A|-3-----x--x--3-----x--x--|-1-----x--x--3-----x--x--|-3-----x--x--3-----x--x--|-1-----x--x--3-----x--x--|
E|-1-----x--x--------------|-------------1-----x--x--|-1-----x--x--------------|-------------1-----x--x--|

 [Gm]         [C]          [F]          [Dm]         [Bb]         [A]
e|-3-----3--3--------------|-1-----1--1--5-----5--5--|-6-----6--6--5-----5--5--|
B|-3-----3--3--5-----5--5--|-1-----1--1--6-----6--6--|-6-----6--6--5-----5--5--|
G|-3-----3--3--5-----5--5--|-2-----2--2--7-----7--7--|-7-----7--7--6-----6--6--|
D|-5-----5--5--5-----5--5--|-3-----3--3--7-----7--7--|-8-----8--8--7-----7--7--|
A|-5-----5--5--3-----3--3--|-3-----3--3--5-----5--5--|-8-----8--8--7-----7--7--|
E|-3-----3--3--------------|-1-----1--1--------------|-6-----6--6--5-----5--5--|

[Outro]

 [D]          [Bm]         [D]          [Bm]         [D]          [Bm]         [D]          [Bm]
e|-------------------------|-------------------------|-------------------------|-------------------------|
B|-------7-----------7-----|-------7-----------7-----|-------7-----------7-----|-------7-----------7-----|
G|----7-----7-----7-----7--|----7-----7-----7-----7--|----7-----7-----7-----7--|----7-----7-----7-----7--|
D|-7-----------9-----------|-7-----------9-----------|-7-----------9-----------|-7-----------9-----------|
A|-------------------------|-------------------------|-------------------------|-------------------------|
E|-------------------------|-------------------------|-------------------------|-------------------------|

e|-------2--------3-p2--2--|-------2--------3-p2--2--|-------2--------3-p2--2--|-------2--------3-p2--2--|
B|-------3--------3-----3--|-------3--------3-----3--|-------3--------3-----3--|-------3--------3-----3--|
G|-------2--------2-----2--|-------2--------2-----2--|-------2--------2-----2--|-------2--------2-----2--|
D|-0-----0-----0--0-----0--|-0-----0-----0--0-----0--|-0-----0-----0--0-----0--|-0-----0-----0--0-----0--|
A|-------------------------|-------------------------|-------------------------|-------------------------|
E|-------------------------|-------------------------|-------------------------|-------------------------|

e|-------------------------|-------------3--p2-------|-------------------------|-------------------------|
B|-------------------------|-------------3-------3---|-------------------------|-------------3--3--x-----|
G|-------------------------|-------------------------|-2-----------------------|-------------4--4--x-----|
D|-------------------------|-------------------------|-0-----------------------|-------------4--4--x-----|
A|-------------------------|-------------------------|-------------------------|-------------2--2--x-----|
E|-------------------------|-------------------------|-------------------------|-------------------------|

 [D]          [Bm]         [D]          [Bm]         [D]          [Bm]         [D]          [Bm]
e|-------------------------|-------------------------|-------------------------|-------------------------|
B|-------7-----------7-----|-------7-----------7-----|-------7-----------7-----|-------7-----------7-----|
G|----7-----7-----7-----7--|----7-----7-----7-----7--|----7-----7-----7-----7--|----7-----7-----7-----7--|
D|-7-----------9-----------|-7-----------9-----------|-7-----------9-----------|-7-----------9-----------|
A|-------------------------|-------------------------|-------------------------|-------------------------|
E|-------------------------|-------------------------|-------------------------|-------------------------|

e|-------2--------3-p2--2--|-------2--------3-p2--2--|-------2--------3-p2--2--|-------2--------3-p2--2--|
B|-------3--------3-----3--|-------3--------3-----3--|-------3--------3-----3--|-------3--------3-----3--|
G|-------2--------2-----2--|-------2--------2-----2--|-------2--------2-----2--|-------2--------2-----2--|
D|-0-----0-----0--0-----0--|-0-----0-----0--0-----0--|-0-----0-----0--0-----0--|-0-----0-----0--0-----0--|
A|-------------------------|-------------------------|-------------------------|-------------------------|
E|-------------------------|-------------------------|-------------------------|-------------------------|

e|-------------------------|-------------3--p2-------|-------------------------|-------------------------|
B|-------------------------|-------------3-------3---|-------------------------|-------------3--3--x-----|
G|-2-----------------------|-------------------------|-2-----------------------|-------------4--4--x-----|
D|-0-----------------------|-------------------------|-0-----------------------|-------------4--4--x-----|
A|-------------------------|-------------------------|-------------------------|-------------2--2--x-----|
E|-------------------------|-------------------------|-------------------------|-------------------------|

 [D]          [Bm]         [D]          [Bm]         [D]          [Bm]         [D]          [Bm]
e|-------------------------|-------------------------|-------------------------|-------------------------|
B|-------7-----------7-----|-------7-----------7-----|-------7-----------7-----|-------7-----------7-----|
G|----7-----7-----7-----7--|----7-----7-----7-----7--|----7-----7-----7-----7--|----7-----7-----7-----7--|
D|-7-----------9-----------|-7-----------9-----------|-7-----------9-----------|-7-----------9-----------|
A|-------------------------|-------------------------|-------------------------|-------------------------|
E|-------------------------|-------------------------|-------------------------|-------------------------|

e|-------2--------3-p2--2--|-------2--------3-p2--2--|-------2--------3-p2--2--|-------2--------3-p2--2--|
B|-------3--------3-----3--|-------3--------3-----3--|-------3--------3-----3--|-------3--------3-----3--|
G|-------2--------2-----2--|-------2--------2-----2--|-------2--------2-----2--|-------2--------2-----2--|
D|-0-----0-----0--0-----0--|-0-----0-----0--0-----0--|-0-----0-----0--0-----0--|-0-----0-----0--0-----0--|
A|-------------------------|-------------------------|-------------------------|-------------------------|
E|-------------------------|-------------------------|-------------------------|-------------------------|

e|-------------------------|
B|-------------------------|
G|-2-----------------------|
D|-0-----------------------|
A|-------------------------|
E|-------------------------|

************************************

| x   Dead note
| (n) Ghost note
| p   Pull-off

************************************
Suggest correction
Creating personal tab
Creating personal tab
You can edit any tab online and save it as your Personal.

You can edit, replace or remove any tab part or add personal notes – all changes will be seen only by you.

Personal tabs can be accessed anytime from any device, even offline.
Learn more »
Give kudos to tab author, rate the tab!
1 2 3 4 5
comments
print report bad tab
guest
You may want to rate the tab now too:
select rating
Wanna post a correction for this tab? Suggest correction