Oops, an error
Loading. Please wait.

Prince Of Persia - Raiders Tab

4,471 views 1 this week
2 commentsread comments
1 2 3 4 5
worth learning
x 8
add to favorites
launch autoscroll
font size
0
reset
how to read this tab
guitar tuner
Autoscroll
slow
fast
+/-
esc
set tempo
stop
Help us to improve Ultimate-Guitar.com Take our survey!
×
Author
Difficulty
Tuning
novice
D A D G B E
Raiders
from the Warrior Within Soundtrack

|--------------------------------------------------------------------------|
For those of you who have played it, this is that really cool guitar 
theme that comes on about half way through the first level. Really easy song, the tuning is Drop-D
|--------------------------------------------------------------------------|

Tuning: Drop D

e|-------------------------------|
B|-------------------------------|
G|-------------------------------|
D|-------------------------------|
A|-2-3--2-3--2-3--0-1-1-1-1-0-0--|
D|-2-3--2-3--2-3--0-1-1-1-1-0-0--|

Play that 3 times and then play this...

e|----------------------------|
B|----------------------------|
G|----------------------------|
D|----------------------------|
A|-1-0--1-0--1-0-1-2-1-0-0-0--|
D|-1-0--1-0--1-0-1-2-1-0-0-0--|

Yup! That's it!
Suggest correction
comments
print report bad tab
2 comments total.
0 reply
robke192 10 wrote on June 9 2010, 07:58 am

this is crap.

0 reply
FRr3AkOnALEaSh 1,049 wrote on July 12 2010, 07:52 am

What robke192 said, this is complete stupidity. Here is how the main riff goes CORRECTLY.

e|----------------------------|
B|----------------------------|
G|----------------------------|
D|----------------------------|
A|-10-9--10-9--10-9---5555-44-|
D|-8--7--8--7--8--7---3333-22-|

guest
You may want to rate the tab now too:
select rating
Please do not post tabs as comments. Select "correction" instead!