Oops, an error
Loading. Please wait.

Prince Of Persia Warrior Within - Brute Battle Tab

version 1
version 1

Whole song

Interactive

8,740 views 1 this week
no commentswrite comment
1 2 3 4 5
please rate
add to favorites
launch autoscroll
font size
0
reset
how to read this tab
guitar tuner
Autoscroll
slow
fast
+/-
esc
set tempo
stop
Help us to improve Ultimate-Guitar.com Take our survey!
×
Author
Difficulty
novice
-------------------------------------------------------------------------------
        Prince of Persia Warrior Within Brute Battle - Misc Computer Games
----------------------------------------------------------------------------
Tabbed by: aziz razavi
Email:azizrazavi@hotmail.com

Tuning:Standard
    play 2x       play 3x    2x        2x
e|---------------|---------|---------|----------|----------------------------|
B|---------------|---------|---------|----------|----------------------------|
G|---------------|---------|---------|----------|----------------------------|
D|---------------|---------|---------|----------|-9-4-5-7-5-4-9-4-5-7-9-10-9-|
A|-2-5-4-2-5-4-7-|-2-5-4-7-|-9-7-5-3-|-9-7-10-5-|-7-2-3-5-3-2-7-2-3-5-7--8-7-|
E|-0-3-2-0-3-2-5-|-0-3-2-5-|-7-5-3-1-|-7-5--8-7-|----------------------------|

e|----------------------------------|--------------------|------------------|
B|----------------------------------|--------------------|------------------|
G|----------------------------------|--------------------|------------------|
D|-4-5-7-5-4-9-4-5-7-9-10-9-9-9-9-9-|--------------------|------------------|
A|-2-3-5-3-2-7-2-3-5-7--8-7-7-7-7-7-|-9-10-7-9-5-7-4-5-2-|-5-7-9-10-7-9-5-7-|
E|----------------------------------|-7--8-5-7-3-5-2-3-0-|-3-5-7--8-5-7-3-5-|

           play 4x                 play 6x
e|-------|-----------------------|--------------|---------------|------------|
B|-------|-----------------------|--------------|---------------|------------|
G|-------|-----------------------|--------------|---------------|------------|
D|-------|-----------------------|----4-5-4-5-5-|---------------|------------|
A|-4-5-2-|-----------------------|-2-2-2-2-2-2--|-2-4-5-4-2-4-5-|-2-4-5-7-10-|
E|-2-3-0-|-0-0-7-0-8-0-7-0-8-0-7-|--------------|-0-2-3-2-0-2-3-|-0-2-3-5--8-|

e|---------|-----------------|-|
B|---------|-----------------|-|
G|---------|-----------------|-|
D|---------|-----------------|-|
A|-9-7-4-5-|-2-4-5-4-2-4-2-4-|-|
E|-7-5-2-3-|-0-2-3-2-0-2-0-2-|-|

Enjoy!!!

| /  slide up
| \  slide down
| h  hammer-on
| p  pull-off
| ~  vibrato
| +  harmonic
| x  Mute note
===============================================================================
Suggest correction
Give kudos to tab author, rate the tab!
1 2 3 4 5
comments
print report bad tab
guest
You may want to rate the tab now too:
select rating
Please do not post tabs as comments. Select "correction" instead!