Oops, an error
Loading. Please wait.

Ratchet And Clank Future A Crack In Time - Pirate Radio 22 tab

361 views 1 this week
2 commentsread comments
1 2 3 4 5
2 more votes to show rating
add to favorites
×
Save as Personal and add changes to this tab that will be seen only by you. Learn more ›
×
You can save this tab as Personal to edit and correct it or add notes. All changes will be seen only by you. Learn more »
launch autoscroll
font size
0
reset
how to read this tab
guitar tuner
edit
Autoscroll
slow
fast
+/-
esc
set tempo
stop
Author
Unregistered
Pirate Radio 22 - Bernilus Sector 3
Boris Salchow
Ratchet and Clank  Future A Crack In Time soundtrack

There is a track of this song which is not on the tab, because it is a keyboard. I 
recommend listen to the song that I leave below because of the confusing time intervals.
MAIN RIFF
e|---------------------------------------------------------------|
B|---------------------------------------------------------------|
G|--7--9h------7--9h------7--9h------9---7---4-------------------|
D|--7--9h------7--9h------7--9h------9---7---4-------------------|   x4
A|--7----------7----------7----------7---5---2-------------------|
E|---------------------------------------------------------------|

After have played one, harder drums begins (1.14), and after have played Main Riff 
twice play the 2nd Riff (1.27)
SECONDARY RIFF
e|---------------------------------------------------------------|
B|--15--17~------15--17~------15--17~\------17--15--12-----------|
G|---------------------------------------------------------------|
D|---------------------------------------------------------------|   x2
A|---------------------------------------------------------------|
E|---------------------------------------------------------------|

In 1.41, the keyboard starts, after have played 2nd Riff once.
The are some effects between 1.57 and 2.08. After those effects, Main Riff is played:

MAIN RIFF x4 - Keyboard x3 (starts with 2nd main riff played) - Secondary Riff x2 
(After first keyboards) - Only effects (3.17)

Main Riff in 3.30 - Keyboards and Secondary Riffs after once Main Riff.

MAIN FINAL RIFF
e|---------------------------------------------------------------|
B|---------------------------------------------------------------|
G|--9---7---4------7--9h------7--9h------7--9h-------------------|
D|--9---7---4------7--9h------7--9h------7--9h-------------------|  
A|--7---5---2------7----------7----------7-----------------------|
E|---------------------------------------------------------------|

SECONDARY FINAL RIFF
e|---------------------------------------------------------------|
B|--17--15--12------15--17~------15--17~------15--17~------------|
G|---------------------------------------------------------------|
D|---------------------------------------------------------------|  
A|---------------------------------------------------------------|
E|---------------------------------------------------------------|


All time intervals are taken from this video. I recommend use the tab comparing with the video.
http://www.youtube.com/watch?v=DL55jn1fWtY&list=PL62F94113EF1F37A8

Please rate and comment, of course if there is any mistake, I will look over it 
and correct it if it's wrong :)

Enjoy! 


| /  slide up
| \  slide down
| h  hammer-on
| p  pull-off
| ~  vibrato
| +  harmonic
| x  Mute note

                                             http://borissalchow.com/

            
            
Suggest correction
Creating personal tab
Creating personal tab
You can edit any tab online and save it as your Personal.

You can edit, replace or remove any tab part or add personal notes – all changes will be seen only by you.

Personal tabs can be accessed anytime from any device, even offline.
Learn more »
Give kudos to tab author, rate the tab!
1 2 3 4 5
comments
print report bad tab
2 comments total.
-1 reply
esky15 192 Mar 22, 2015 10:51 PM

Lack of accuracy. Clearly wrong.
Lack of accuracy. Clearly wrong. Every riff this tabs shows is wrong for the song in question. Doesn't give any good information and whoever needs it won't have a accuarate tab

0 reply
Diego Carnero 44 Apr 12, 2015 06:18 AM

just copied my comment from one of your tabs

guest
Wanna post a correction for this tab? Suggest correction