Oops, an error
Loading. Please wait.

Rayman 2 - Spider Attack Tab

16 views 1 this week
no commentswrite comment
1 2 3 4 5
3 more votes to show rating
add to favorites
launch autoscroll
font size
0
reset
how to read this tab
guitar tuner
Autoscroll
slow
fast
+/-
esc
set tempo
stop
Help us to improve Ultimate-Guitar.com Take our survey!
×
Author
Difficulty
intermediate
About this tab version
It's the first original by me. Was this info helpful? Yes No
======================================================================================================
                  Spider Attack (The Canopy) Soundtrack - Rayman 2 The Great Escape
======================================================================================================



Scary Violin Start (Not really playable)
|--35-35~~~~~~~~~~~~~~~~~~~~~~----------------------------------------------------------------------|
|--------35-35~~~~~~~~~~~~~~~~~~~~~~~---------------------------------------------------------------|
|--------------30-30~~~~~~~~~~~~~~~~~~~~~~~~--------------------------------------------------------|
|--------------------29-29~~~~~~~~~~~~~~~~~~~~~~~~~~~~~~--------------------------------------------|
|--------------------------40-40~~~~~~~~~~~~~~~~~~~~~~~~~~~~~~--------------------------------------|
|---------------------------------41-41~~~~~~~~-----------------------------------------------------|


Don't have to do the octaves
Beefy Riff                              Piano..Trumpet Chords.
|---------------------------------------6~~~~~~-----------------------------------------------------|
|---------------------------------------7~~~~~3~~~--------------------------------------------------|
|------------------------4-3------------7~~~~~3~~~~~-------4-3-------2-5-8-7-6-5-2-5-4-----3-2------|
|----------------------------4-7-5------------4~~~~~---4-5-----4-7-5-------------------6-5----------|
|-----------------------2-1-------------------------------2-1-------0-3-6-5-4-3-0-3-2-----1-0-------|
|-0-2-3-2-0-2-3-2-0-2-3-----2-5-3---0-2-3-2-0-2-3-2-0-2-3-----2-5-3-------------------4-3-----------|


Where Violin joins melody at around 0:21 seconds.
|---------------------------------------------------------------------5544---------------------------|
|-------------------------------------------------------------5---6655-------------------------------|
|--5-8-7-6-5-3-2-4-----3-4-7-10-9-8-7-4-7-6-3-2-5-5-7----------654-----------------------------------|
|------------------6-5--------------------------------3-0-7-6-^--------------------------------------|
|-3-6-5-4-3-1-0-2-----1-2-5-8--7-6-5-2-5-4-1-0-3-2-5----------Bass stops here violins play this.-----|
|-----------------4-3--------------------------------1-2-5-4-----------------------------------------|


Violin melody over this ^               Then Other melody at 0:26 that goes into that very last melody.
|----------------------------33-22-------------------------------------------------------------------|
|----------------------44-33-------------------------------------3~~~2~~~----------------------------|
|----88-77---------------------------------------1~~~0~~~4~~~3~~~------------------------------------|
|-88-------55-44-88-77-------------------3~~~2~~~----------------------------------------------------|
|----------------------------------------------------------------------------------------------------|
|----------------------------------------------------------------------------------------------------|




Repeat as needed.
Suggest correction
Give kudos to tab author, rate the tab!
1 2 3 4 5
comments
print report bad tab
guest
You may want to rate the tab now too:
select rating
Wanna post a correction for this tab? Suggest correction