Oops, an error
Loading. Please wait.

Rebirth Theme tab

57 views 1 this week
no commentswrite comment
1 2 3 4 5
3 more votes to show rating
add to favorites
×
Save as Personal and add changes to this tab that will be seen only by you. Learn more ›
×
You can save this tab as Personal to edit and correct it or add notes. All changes will be seen only by you. Learn more »
launch autoscroll
font size
0
reset
how to read this tab
guitar tuner
edit
Autoscroll
slow
fast
+/-
esc
set tempo
stop
= Tabs for Rebirth =-

==================================================================================

Guitar Help
==================================================================================

o = Open
m = Palm-Muted
x = Harmonics
r = Reversed Swell.  Achieved with the volume button or a volume pedal.

==================================================================================

Guitar 1 Tabs
==================================================================================

  0:00
E ------------------------------------------------------------------------------------------------|
B ------------------------------------------------------------------------------------------------|
G 5-----------------------------------------------7-----------------------8-----------------------|
D x-----------------------------------------------x-----------------------x-----------------------|
A 3-----------------------------------------------5-----------------------6-----------------------|
E ------------------------------------------------------------------------------------------------|
  o-----------------------------------------------o-----------------------o-----------------------|

  0:02
E ------------------------------------------------------------------------------------------------|
B ------------------------------------------------------------------------------------------------|
G ------------------------------------------------------------------------------------------------|
D ------------------------------------------------------------------------------------------------|
A ------------------------------------------------------------------------------------------------|
E ------------------------------------------------------------------------------------------------|
  ------------------------------------------------------------------------------------------------|

  0:05
E ------------------------------------------------------------------------------------------------|
B ------------------------------------------------------------------------------------------------|
G ------------------------------------------------------------------------5-----------------------|
D ------------------------------------------------------------------------x-----------------------|
A ------------------------------------------------------------------------3-----------------------|
E ------------------------------------------------------------------------------------------------|
  ------------------------------------------------------------------------o-----------------------|

  0:08
E ------------------------------------------------------------------------------------------------|
B ------------------------------------------------------------------------------------------------|
G 12----------------------------------------------5-----------------------------------------------|
D x-----------------------------------------------x-----------------------------------------------|
A 10----------------------------------------------3-----------------------------------------------|
E ------------------------------------------------------------------------------------------------|
  o-----------------------------------------------o-----------------------------------------------|

  0:11
E ------------------------------------------------------------------------------------------------|
B ------------------------------------------------------------------------------------------------|
G ------------------------------------------------------------------------------------------------|
D ------------------------------------------------------------------------------------------------|
A ------------------------------------------------------------------------------------------------|
E ------------------------------------------------------------------------------------------------|
  ------------------------------------------------------------------------------------------------|

  0:14
E ------------------------------------------------------------------------------------------------|
B ------------------------------------------------------------------------------------------------|
G ------------------------------------------------5-----------------------12----------------------|
D ------------------------------------------------x-----------------------x-----------------------|
A ------------------------------------------------3-----------------------10----------------------|
E ------------------------------------------------------------------------------------------------|
  ------------------------------------------------o-----------------------o-----------------------|

  0:16
E ------------------------------------------------------------------------------------------------|
B ------------------------------------------------------------------------------------------------|
G ------------------------8-----------------------------------------------------------------------|
D ------------------------x-----------------------------------------------------------------------|
A ------------------------6-----------------------------------------------------------------------|
E ------------------------------------------------------------------------------------------------|
  ------------------------o-----------------------------------------------------------------------|

  0:19
E ------------------------------------------------------------------------------------------------|
B ------------------------------------------------------------------------------------------------|
G ------------------------------------------------------------------------------------------------|
D ------------------------------------------------------------------------------------------------|
A ------------------------------------------------------------------------------------------------|
E ------------------------------------------------------------------------------------------------|
  ------------------------------------------------------------------------------------------------|

  0:22
E ------------------------------------------------------------------------------------------------|
B ------------------------------------------------------------------------------------------------|
G ------------------------5-----------------------------------------------7-----------------------|
D ------------------------x-----------------------------------------------x-----------------------|
A ------------------------3-----------------------------------------------5-----------------------|
E ------------------------------------------------------------------------------------------------|
  ------------------------o-----------------------------------------------o-----------------------|

  0:25
E ------------------------------------------------------------------------------------------------|
B ------------------------------------------------------------------------------------------------|
G 5-----------------------------------------------------------------------------------------------|
D x-----------------------------------------------------------------------------------------------|
A 3-----------------------------------------------------------------------------------------------|
E ------------------------------------------------------------------------------------------------|
  o-----------------------------------------------------------------------------------------------|

  0:28
E ------------------------------------------------------------------------------------------------|
B ------------------------------------------------------------------------------------------------|
G ------------------------------------------------------------------------------------------------|
D ------------------------------------------------------------------------------------------------|
A ------------------------------------------------------------------------------------------------|
E ------------------------------------------------------------------------------------------------|
  ------------------------------------------------------------------------------------------------|

  0:31
E ------------------------------------------------------------------------------------------------|
B ------------------------------------------------------------------------------------------------|
G ------------------------------------------------------------------------------------------------|
D ------------------------------------------------------------------------------------------------|
A 3-----3-----3-----3-----10----10----10----10----5-----5-----5-----5-----6-----6-----6-----6-----|
E ------------------------------------------------------------------------------------------------|
  m-----m-----m-----m-----m-----m-----m-----m-----m-----m-----m-----m-----m-----m-----m-----m-----|

  0:33
E ------------------------------------------------------------------------------------------------|
B ------------------------------------------------------------------------------------------------|
G ------------------------------------------------------------------------------------------------|
D ------------------------------------------------------------------------------------------------|
A 6-----6-----6-----6-----6-----6-----6-----6-----6-----6-----6-----6-----6-----6-----6-----6-----|
E ------------------------------------------------------------------------------------------------|
  m-----m-----m-----m-----m-----m-----m-----m-----m-----m-----m-----m-----m-----m-----m-----m-----|

  0:36
E ------------------------------------------------------------------------------------------------|
B ------------------------------------------------------------------------------------------------|
G ------------------------------------------------------------------------------------------------|
D ------------------------------------------------------------------------------------------------|
A 3-----3-----3-----3-----10----10----10----10----5-----5-----5-----5-----3-----3-----3-----3-----|
E ------------------------------------------------------------------------------------------------|
  m-----m-----m-----m-----m-----m-----m-----m-----m-----m-----m-----m-----m-----m-----m-----m-----|

  0:39
E ------------------------------------------------------------------------------------------------|
B ------------------------------------------------------------------------------------------------|
G ------------------------------------------------------------------------------------------------|
D ------------------------------------------------------------------------------------------------|
A 3-----3-----3-----3-----3-----3-----3-----3-----3-----3-----3-----3-----3-----3-----3-----3-----|
E ------------------------------------------------------------------------------------------------|
  m-----m-----m-----m-----m-----m-----m-----m-----m-----m-----m-----m-----m-----m-----m-----m-----|

  0:42
E ------------------------------------------------------------------------------------------------|
B ------------------------------------------------------------------------------------------------|
G ------------------------------------------------------------------------------------------------|
D ------------------------------------------------------------------------------------------------|
A 3-----3-----3-----3-----10----10----10----10----5-----5-----5-----5-----6-----6-----6-----6-----|
E ------------------------------------------------------------------------------------------------|
  m-----m-----m-----m-----m-----m-----m-----m-----m-----m-----m-----m-----m-----m-----m-----m-----|

  0:45
E ------------------------------------------------------------------------------------------------|
B ------------------------------------------------------------------------------------------------|
G ------------------------------------------------------------------------------------------------|
D ------------------------------------------------------------------------------------------------|
A 6-----6-----6-----6-----6-----6-----6-----6-----6-----6-----6-----6-----6-----6-----6-----6-----|
E ------------------------------------------------------------------------------------------------|
  m-----m-----m-----m-----m-----m-----m-----m-----m-----m-----m-----m-----m-----m-----m-----m-----|

  0:47
E ------------------------------------------------------------------------------------------------|
B ------------------------------------------------------------------------------------------------|
G ------------------------------------------------------------------------------------------------|
D ------------------------------------------------------------------------------------------------|
A 3-----3-----3-----3-----10----10----10----10----5-----5-----5-----5-----3-----3-----3-----3-----|
E ------------------------------------------------------------------------------------------------|
  m-----m-----m-----m-----m-----m-----m-----m-----m-----m-----m-----m-----m-----m-----m-----m-----|

  0:50
E ------------------------------------------------------------------------------------------------|
B ------------------------------------------------------------------------------------------------|
G ------------------------------------------------5-----------------------------------------------|
D ------------------------------------------------x-----------------------------------------------|
A 3-----3-----3-----3-----3-----3-----3-----3-----3-----------------------------------------------|
E ------------------------------------------------------------------------------------------------|
  m-----m-----m-----m-----m-----m-----m-----m-----o-----------------------------------------------|

  0:53
E ------------------------------------------------------------------------------------------------|
B ------------------------------------------------------------------------------------------------|
G 5-----5-----5-----5-----12----12----12----12----7-----7-----7-----7-----8-----8-----8-----8-----|
D x-----x-----x-----x-----x-----x-----x-----x-----x-----x-----x-----x-----x-----x-----x-----x-----|
A 3-----3-----3-----3-----10----10----10----10----5-----5-----5-----5-----6-----6-----6-----6-----|
E ------------------------------------------------------------------------------------------------|
  o-----o-----o-----o-----o-----o-----o-----o-----o-----o-----o-----o-----o-----o-----o-----o-----|

  0:56
E ------------------------------------------------------------------------------------------------|
B ------------------------------------------------------------------------------------------------|
G 8-----8-----8-----8-----8-----8-----8-----8-----8-----8-----8-----8-----8-----8-----8-----8-----|
D x-----x-----x-----x-----x-----x-----x-----x-----x-----x-----x-----x-----x-----x-----x-----x-----|
A 6-----6-----6-----6-----6-----6-----6-----6-----6-----6-----6-----6-----6-----6-----6-----6-----|
E ------------------------------------------------------------------------------------------------|
  o-----o-----o-----o-----o-----o-----o-----o-----o-----o-----o-----o-----o-----o-----o-----o-----|

  0:59
E ------------------------------------------------------------------------------------------------|
B ------------------------------------------------------------------------------------------------|
G 5-----5-----5-----5-----12----12----12----12----7-----7-----7-----7-----5-----5-----5-----5-----|
D x-----x-----x-----x-----x-----x-----x-----x-----x-----x-----x-----x-----x-----x-----x-----x-----|
A 3-----3-----3-----3-----10----10----10----10----5-----5-----5-----5-----3-----3-----3-----3-----|
E ------------------------------------------------------------------------------------------------|
  o-----o-----o-----o-----o-----o-----o-----o-----o-----o-----o-----o-----o-----o-----o-----o-----|

  1:02
E ------------------------------------------------------------------------------------------------|
B ------------------------------------------------------------------------------------------------|
G 5-----5-----5-----5-----5-----5-----5-----5-----5-----5-----5-----5-----5-----5-----5-----5-----|
D x-----x-----x-----x-----x-----x-----x-----x-----x-----x-----x-----x-----x-----x-----x-----x-----|
A 3-----3-----3-----3-----3-----3-----3-----3-----3-----3-----3-----3-----3-----3-----3-----3-----|
E ------------------------------------------------------------------------------------------------|
  o-----o-----o-----o-----o-----o-----o-----o-----o-----o-----o-----o-----o-----o-----o-----o-----|

  1:04
E ------------------------------------------------------------------------------------------------|
B ------------------------------------------------------------------------------------------------|
G 5-----5-----5-----5-----12----12----12----12----7-----7-----7-----7-----8-----8-----8-----8-----|
D x-----x-----x-----x-----x-----x-----x-----x-----x-----x-----x-----x-----x-----x-----x-----x-----|
A 3-----3-----3-----3-----10----10----10----10----5-----5-----5-----5-----6-----6-----6-----6-----|
E ------------------------------------------------------------------------------------------------|
  o-----o-----o-----o-----o-----o-----o-----o-----o-----o-----o-----o-----o-----o-----o-----o-----|

  1:07
E ------------------------------------------------------------------------------------------------|
B ------------------------------------------------------------------------------------------------|
G 8-----8-----8-----8-----8-----8-----8-----8-----8-----8-----8-----8-----8-----8-----8-----8-----|
D x-----x-----x-----x-----x-----x-----x-----x-----x-----x-----x-----x-----x-----x-----x-----x-----|
A 6-----6-----6-----6-----6-----6-----6-----6-----6-----6-----6-----6-----6-----6-----6-----6-----|
E ------------------------------------------------------------------------------------------------|
  o-----o-----o-----o-----o-----o-----o-----o-----o-----o-----o-----o-----o-----o-----o-----o-----|

  1:10
E ------------------------------------------------------------------------------------------------|
B ------------------------------------------------------------------------------------------------|
G 5-----5-----5-----5-----12----12----12----12----7-----7-----7-----7-----5-----5-----5-----5-----|
D x-----x-----x-----x-----x-----x-----x-----x-----x-----x-----x-----x-----x-----x-----x-----x-----|
A 3-----3-----3-----3-----10----10----10----10----5-----5-----5-----5-----3-----3-----3-----3-----|
E ------------------------------------------------------------------------------------------------|
  o-----o-----o-----o-----o-----o-----o-----o-----o-----o-----o-----o-----o-----o-----o-----o-----|

  1:13
E ------------------------------------------------------------------------------------------------|
B ------------------------------------------------------------------------------------------------|
G 5-----5-----5-----5-----5-----5-----5-----5-----5-----5-----5-----5-----5-----5-----5-----5-----|
D x-----x-----x-----x-----x-----x-----x-----x-----x-----x-----x-----x-----x-----x-----x-----x-----|
A 3-----3-----3-----3-----3-----3-----3-----3-----3-----3-----3-----3-----3-----3-----3-----3-----|
E ------------------------------------------------------------------------------------------------|
  o-----o-----o-----o-----o-----o-----o-----o-----o-----o-----o-----o-----o-----o-----o-----o-----|

  1:16
E ------------------------------------------------------------------------------------------------|
B ------------------------------------------------------------------------------------------------|
G 8-----8-----8-----8-----10----10----10----10----12----12----12----12----8-----8-----8-----8-----|
D x-----x-----x-----x-----x-----x-----x-----x-----x-----x-----x-----x-----x-----x-----x-----x-----|
A 6-----6-----6-----6-----8-----8-----8-----8-----10----10----10----10----6-----6-----6-----6-----|
E ------------------------------------------------------------------------------------------------|
  o-----o-----o-----o-----o-----o-----o-----o-----o-----o-----o-----o-----o-----o-----o-----o-----|

  1:19
E ------------------------------------------------------------------------------------------------|
B ------------------------------------------------------------------------------------------------|
G 7-----7-----7-----7-----15----15----15----15----13----13----13----13----8-----8-----8-----8-----|
D x-----x-----x-----x-----x-----x-----x-----x-----x-----x-----x-----x-----x-----x-----x-----x-----|
A 5-----5-----5-----5-----13----13----13----13----11----11----11----11----6-----6-----6-----6-----|
E ------------------------------------------------------------------------------------------------|
  o-----o-----o-----o-----o-----o-----o-----o-----o-----o-----o-----o-----o-----o-----o-----o-----|

  1:21
E ------------------------------------------------------------------------------------------------|
B ------------------------------------------------------------------------------------------------|
G 12----12----12----12----12----12----12----12----10----10----10----10----10----10----10----10----|
D x-----x-----x-----x-----x-----x-----x-----x-----x-----x-----x-----x-----x-----x-----x-----x-----|
A 10----10----10----10----10----10----10----10----8-----8-----8-----8-----8-----8-----8-----8-----|
E ------------------------------------------------------------------------------------------------|
  o-----o-----o-----o-----o-----o-----o-----o-----o-----o-----o-----o-----o-----o-----o-----o-----|

  1:24
E ------------------------------------------------------------------------------------------------|
B ------------------------------------------------------------------------------------------------|
G 13----13----13----13----13----13----13----13----12----12----12----12----12----12----12----12----|
D x-----x-----x-----x-----x-----x-----x-----x-----x-----x-----x-----x-----x-----x-----x-----x-----|
A 11----11----11----11----11----11----11----11----10----10----10----10----10----10----10----10----|
E ------------------------------------------------------------------------------------------------|
  o-----o-----o-----o-----o-----o-----o-----o-----o-----o-----o-----o-----o-----o-----o-----o-----|

  1:27
E ------------------------------------------------------------------------------------------------|
B ------------------------------------------------------------------------------------------------|
G 8-----8-----8-----8-----10----10----10----10----12----12----12----12----8-----8-----8-----8-----|
D x-----x-----x-----x-----x-----x-----x-----x-----x-----x-----x-----x-----x-----x-----x-----x-----|
A 6-----6-----6-----6-----8-----8-----8-----8-----10----10----10----10----6-----6-----6-----6-----|
E ------------------------------------------------------------------------------------------------|
  o-----o-----o-----o-----o-----o-----o-----o-----o-----o-----o-----o-----o-----o-----o-----o-----|

  1:30
E ------------------------------------------------------------------------------------------------|
B ------------------------------------------------------------------------------------------------|
G 7-----7-----7-----7-----15----15----15----15----13----13----13----13----8-----8-----8-----8-----|
D x-----x-----x-----x-----x-----x-----x-----x-----x-----x-----x-----x-----x-----x-----x-----x-----|
A 5-----5-----5-----5-----13----13----13----13----11----11----11----11----6-----6-----6-----6-----|
E ------------------------------------------------------------------------------------------------|
  o-----o-----o-----o-----o-----o-----o-----o-----o-----o-----o-----o-----o-----o-----o-----o-----|

  1:33
E ------------------------------------------------------------------------------------------------|
B ------------------------------------------------------------------------------------------------|
G 12----12----12----12----12----12----12----12----10----10----10----10----10----10----10----10----|
D x-----x-----x-----x-----x-----x-----x-----x-----x-----x-----x-----x-----x-----x-----x-----x-----|
A 10----10----10----10----10----10----10----10----8-----8-----8-----8-----8-----8-----8-----8-----|
E ------------------------------------------------------------------------------------------------|
  o-----o-----o-----o-----o-----o-----o-----o-----o-----o-----o-----o-----o-----o-----o-----o-----|

  1:35
E ------------------------------------------------------------------------------------------------|
B ------------------------------------------------------------------------------------------------|
G 13----13----13----13----13----13----13----13----15----------------------------------------------|
D x-----x-----x-----x-----x-----x-----x-----x-----x-----------------------------------------------|
A 11----11----11----11----11----11----11----11----13----------------------------------------------|
E ------------------------------------------------------------------------------------------------|
  o-----o-----o-----o-----o-----o-----o-----o-----o-----------------------------------------------|

  1:38
E ------------------------------------------------------------------------------------------------|
B ------------------------------------------------------------------------------------------------|
G ------------------------------------------------------------------------------------------------|
D ------------------------------------------------------------------------------------------------|
A ------------------------------------------------------------------------------------------------|
E ------------------------------------------------------------------------------------------------|
  ------------------------------------------------------------------------------------------------|

  1:41
E ------------------------------------------------------------------------------------------------|
B ------------------------------------------------------------------------------------------------|
G ------------------------------------------------------------------------------------------------|
D ------------------------------------------------------------------------------------------------|
A ------------------------------------------------------------------------------------------------|
E ------------------------------------------------------------------------------------------------|
  ------------------------------------------------------------------------------------------------|

  1:44
E ------------------------------------------------------------------------------------------------|
B ------------------------------------------------------------------------------------------------|
G ------------------------------------------------------------------------------------------------|
D ------------------------------------------------------------------------------------------------|
A ------------------------------------------------------------------------------------------------|
E ------------------------------------------------------------------------------------------------|
  ------------------------------------------------------------------------------------------------|

  1:47
E ------------------------------------------------------------------------------------------------|
B ------------------------------------------------------------------------------------------------|
G ------------------------------------------------------------------------------------------------|
D ------------------------------------------------------------------------------------------------|
A ------------------------------------------------------------------------------------------------|
E ------------------------------------------------------------------------------------------------|
  ------------------------------------------------------------------------------------------------|

  1:50
E ------------------------------------------------------------------------------------------------|
B ------------------------------------------------------------------------------------------------|
G 13----------------------------------------------------------------------------------------------|
D x-----------------------------------------------------------------------------------------------|
A 11----------------------------------------------------------------------------------------------|
E ------------------------------------------------------------------------------------------------|
  r-----------------------------------------------------------------------------------------------|

  1:52
E ------------------------------------------------------------------------------------------------|
B ------------------------------------------------------------------------------------------------|
G 12----------------------------------------------------------------------------------------------|
D x-----------------------------------------------------------------------------------------------|
A 10----------------------------------------------------------------------------------------------|
E ------------------------------------------------------------------------------------------------|
  o-----------------------------------------------------------------------------------------------|

  1:55
E ------------------------------------------------------------------------------------------------|
B ------------------------------------------------------------------------------------------------|
G 8-----------------------------------------------10----------------------13----------------------|
D x-----------------------------------------------x-----------------------x-----------------------|
A 6-----------------------------------------------8-----------------------11----------------------|
E ------------------------------------------------------------------------------------------------|
  o-----------------------------------------------o-----------------------o-----------------------|

  1:58
E ------------------------------------------------------------------------------------------------|
B ------------------------------------------------------------------------------------------------|
G 12----------------------------------------------13----------------------12----------------------|
D x-----------------------------------------------x-----------------------x-----------------------|
A 10----------------------------------------------11----------------------10----------------------|
E ------------------------------------------------------------------------------------------------|
  o-----------------------------------------------o-----------------------o-----------------------|

  2:01
E ------------------------------------------------------------------------------------------------|
B ------------------------------------------------------------------------------------------------|
G 8-----------------------------------------------10----------------------13----------------------|
D x-----------------------------------------------x-----------------------x-----------------------|
A 6-----------------------------------------------8-----------------------11----------------------|
E ------------------------------------------------------------------------------------------------|
  o-----------------------------------------------o-----------------------o-----------------------|

  2:04
E ------------------------------------------------------------------------------------------------|
B ------------------------------------------------------------------------------------------------|
G 12----12----12----12----12----12----12----12----12----12----12----12----12----12----12----12----|
D x-----x-----x-----x-----x-----x-----x-----x-----x-----x-----x-----x-----x-----x-----x-----x-----|
A 10----10----10----10----10----10----10----10----10----10----10----10----10----10----10----10----|
E ------------------------------------------------------------------------------------------------|
  o-----o-----o-----o-----o-----o-----o-----o-----o-----o-----o-----o-----o-----o-----o-----o-----|

  2:06
E ------------------------------------------------------------------------------------------------|
B ------------------------------------------------------------------------------------------------|
G 8-----8-----8-----8-----8-----8-----8-----8-----10----10----10----10----13----13----13----13----|
D x-----x-----x-----x-----x-----x-----x-----x-----x-----x-----x-----x-----x-----x-----x-----x-----|
A 6-----6-----6-----6-----6-----6-----6-----6-----8-----8-----8-----8-----11----11----11----11----|
E ------------------------------------------------------------------------------------------------|
  o-----o-----o-----o-----o-----o-----o-----o-----o-----o-----o-----o-----o-----o-----o-----o-----|

  2:09
E ------------------------------------------------------------------------------------------------|
B ------------------------------------------------------------------------------------------------|
G 12----12----12----12----12----12----12----12----13----13----13----13----12----12----12----12----|
D x-----x-----x-----x-----x-----x-----x-----x-----x-----x-----x-----x-----x-----x-----x-----x-----|
A 10----10----10----10----10----10----10----10----11----11----11----11----10----10----10----10----|
E ------------------------------------------------------------------------------------------------|
  o-----o-----o-----o-----o-----o-----o-----o-----o-----o-----o-----o-----o-----o-----o-----o-----|

  2:12
E ------------------------------------------------------------------------------------------------|
B ------------------------------------------------------------------------------------------------|
G 8-----8-----8-----8-----8-----8-----8-----8-----10----------------------8-----------------------|
D x-----x-----x-----x-----x-----x-----x-----x-----x-----------------------x-----------------------|
A 6-----6-----6-----6-----6-----6-----6-----6-----8-----------------------6-----------------------|
E ------------------------------------------------------------------------------------------------|
  o-----o-----o-----o-----o-----o-----o-----o-----o-----------------------o-----------------------|

  2:15
E ------------------------------------------------------------------------------------------------|
B ------------------------------------------------------------------------------------------------|
G 5-----5-----5-----5-----12----12----12----12----7-----7-----7-----7-----8-----8-----8-----8-----|
D x-----x-----x-----x-----x-----x-----x-----x-----x-----x-----x-----x-----x-----x-----x-----x-----|
A 3-----3-----3-----3-----10----10----10----10----5-----5-----5-----5-----6-----6-----6-----6-----|
E ------------------------------------------------------------------------------------------------|
  o-----o-----o-----o-----o-----o-----o-----o-----o-----o-----o-----o-----o-----o-----o-----o-----|

  2:18
E ------------------------------------------------------------------------------------------------|
B ------------------------------------------------------------------------------------------------|
G 8-----8-----8-----8-----8-----8-----8-----8-----8-----8-----8-----8-----8-----8-----8-----8-----|
D x-----x-----x-----x-----x-----x-----x-----x-----x-----x-----x-----x-----x-----x-----x-----x-----|
A 6-----6-----6-----6-----6-----6-----6-----6-----6-----6-----6-----6-----6-----6-----6-----6-----|
E ------------------------------------------------------------------------------------------------|
  o-----o-----o-----o-----o-----o-----o-----o-----o-----o-----o-----o-----o-----o-----o-----o-----|

  2:21
E ------------------------------------------------------------------------------------------------|
B ------------------------------------------------------------------------------------------------|
G 5-----5-----5-----5-----12----12----12----12----7-----7-----7-----7-----5-----5-----5-----5-----|
D x-----x-----x-----x-----x-----x-----x-----x-----x-----x-----x-----x-----x-----x-----x-----x-----|
A 3-----3-----3-----3-----10----10----10----10----5-----5-----5-----5-----3-----3-----3-----3-----|
E ------------------------------------------------------------------------------------------------|
  o-----o-----o-----o-----o-----o-----o-----o-----o-----o-----o-----o-----o-----o-----o-----o-----|

  2:23
E ------------------------------------------------------------------------------------------------|
B ------------------------------------------------------------------------------------------------|
G 5-----5-----5-----5-----5-----5-----5-----5-----5-----5-----5-----5-----5-----5-----5-----5-----|
D x-----x-----x-----x-----x-----x-----x-----x-----x-----x-----x-----x-----x-----x-----x-----x-----|
A 3-----3-----3-----3-----3-----3-----3-----3-----3-----3-----3-----3-----3-----3-----3-----3-----|
E ------------------------------------------------------------------------------------------------|
  o-----o-----o-----o-----o-----o-----o-----o-----o-----o-----o-----o-----o-----o-----o-----o-----|

  2:26
E ------------------------------------------------------------------------------------------------|
B ------------------------------------------------------------------------------------------------|
G 5-----5-----5-----5-----12----12----12----12----7-----7-----7-----7-----8-----8-----8-----8-----|
D x-----x-----x-----x-----x-----x-----x-----x-----x-----x-----x-----x-----x-----x-----x-----x-----|
A 3-----3-----3-----3-----10----10----10----10----5-----5-----5-----5-----6-----6-----6-----6-----|
E ------------------------------------------------------------------------------------------------|
  o-----o-----o-----o-----o-----o-----o-----o-----o-----o-----o-----o-----o-----o-----o-----o-----|

  2:29
E ------------------------------------------------------------------------------------------------|
B ------------------------------------------------------------------------------------------------|
G 8-----8-----8-----8-----8-----8-----8-----8-----8-----8-----8-----8-----8-----8-----8-----8-----|
D x-----x-----x-----x-----x-----x-----x-----x-----x-----x-----x-----x-----x-----x-----x-----x-----|
A 6-----6-----6-----6-----6-----6-----6-----6-----6-----6-----6-----6-----6-----6-----6-----6-----|
E ------------------------------------------------------------------------------------------------|
  o-----o-----o-----o-----o-----o-----o-----o-----o-----o-----o-----o-----o-----o-----o-----o-----|

  2:32
E ------------------------------------------------------------------------------------------------|
B ------------------------------------------------------------------------------------------------|
G 5-----5-----5-----5-----12----12----12----12----7-----7-----7-----7-----5-----5-----5-----5-----|
D x-----x-----x-----x-----x-----x-----x-----x-----x-----x-----x-----x-----x-----x-----x-----x-----|
A 3-----3-----3-----3-----10----10----10----10----5-----5-----5-----5-----3-----3-----3-----3-----|
E ------------------------------------------------------------------------------------------------|
  o-----o-----o-----o-----o-----o-----o-----o-----o-----o-----o-----o-----o-----o-----o-----o-----|

  2:35
E ------------------------------------------------------------------------------------------------|
B ------------------------------------------------------------------------------------------------|
G 5-----5-----5-----5-----5-----5-----5-----5-----5-----5-----5-----5-----5-----5-----5-----5-----|
D x-----x-----x-----x-----x-----x-----x-----x-----x-----x-----x-----x-----x-----x-----x-----x-----|
A 3-----3-----3-----3-----3-----3-----3-----3-----3-----3-----3-----3-----3-----3-----3-----3-----|
E ------------------------------------------------------------------------------------------------|
  o-----o-----o-----o-----o-----o-----o-----o-----o-----o-----o-----o-----o-----o-----o-----o-----|

  2:38
E ------------------------------------------------------------------------------------------------|
B ------------------------------------------------------------------------------------------------|
G 8-----8-----8-----8-----10----10----10----10----12----12----12----12----8-----8-----8-----8-----|
D x-----x-----x-----x-----x-----x-----x-----x-----x-----x-----x-----x-----x-----x-----x-----x-----|
A 6-----6-----6-----6-----8-----8-----8-----8-----10----10----10----10----6-----6-----6-----6-----|
E ------------------------------------------------------------------------------------------------|
  o-----o-----o-----o-----o-----o-----o-----o-----o-----o-----o-----o-----o-----o-----o-----o-----|

  2:40
E ------------------------------------------------------------------------------------------------|
B ------------------------------------------------------------------------------------------------|
G 7-----7-----7-----7-----15----15----15----15----13----13----13----13----8-----8-----8-----8-----|
D x-----x-----x-----x-----x-----x-----x-----x-----x-----x-----x-----x-----x-----x-----x-----x-----|
A 5-----5-----5-----5-----13----13----13----13----11----11----11----11----6-----6-----6-----6-----|
E ------------------------------------------------------------------------------------------------|
  o-----o-----o-----o-----o-----o-----o-----o-----o-----o-----o-----o-----o-----o-----o-----o-----|

  2:43
E ------------------------------------------------------------------------------------------------|
B ------------------------------------------------------------------------------------------------|
G 12----12----12----12----12----12----12----12----10----10----10----10----10----10----10----10----|
D x-----x-----x-----x-----x-----x-----x-----x-----x-----x-----x-----x-----x-----x-----x-----x-----|
A 10----10----10----10----10----10----10----10----8-----8-----8-----8-----8-----8-----8-----8-----|
E ------------------------------------------------------------------------------------------------|
  o-----o-----o-----o-----o-----o-----o-----o-----o-----o-----o-----o-----o-----o-----o-----o-----|

  2:46
E ------------------------------------------------------------------------------------------------|
B ------------------------------------------------------------------------------------------------|
G 13----13----13----13----13----13----13----13----12----12----12----12----12----12----12----12----|
D x-----x-----x-----x-----x-----x-----x-----x-----x-----x-----x-----x-----x-----x-----x-----x-----|
A 11----11----11----11----11----11----11----11----10----10----10----10----10----10----10----10----|
E ------------------------------------------------------------------------------------------------|
  o-----o-----o-----o-----o-----o-----o-----o-----o-----o-----o-----o-----o-----o-----o-----o-----|

  2:49
E ------------------------------------------------------------------------------------------------|
B ------------------------------------------------------------------------------------------------|
G 8-----8-----8-----8-----10----10----10----10----12----12----12----12----8-----8-----8-----8-----|
D x-----x-----x-----x-----x-----x-----x-----x-----x-----x-----x-----x-----x-----x-----x-----x-----|
A 6-----6-----6-----6-----8-----8-----8-----8-----10----10----10----10----6-----6-----6-----6-----|
E ------------------------------------------------------------------------------------------------|
  o-----o-----o-----o-----o-----o-----o-----o-----o-----o-----o-----o-----o-----o-----o-----o-----|

  2:52
E ------------------------------------------------------------------------------------------------|
B ------------------------------------------------------------------------------------------------|
G 7-----7-----7-----7-----15----15----15----15----13----13----13----13----8-----8-----8-----8-----|
D x-----x-----x-----x-----x-----x-----x-----x-----x-----x-----x-----x-----x-----x-----x-----x-----|
A 5-----5-----5-----5-----13----13----13----13----11----11----11----11----6-----6-----6-----6-----|
E ------------------------------------------------------------------------------------------------|
  o-----o-----o-----o-----o-----o-----o-----o-----o-----o-----o-----o-----o-----o-----o-----o-----|

  2:54
E ------------------------------------------------------------------------------------------------|
B ------------------------------------------------------------------------------------------------|
G 12----12----12----12----12----12----12----12----10----10----10----10----10----10----10----10----|
D x-----x-----x-----x-----x-----x-----x-----x-----x-----x-----x-----x-----x-----x-----x-----x-----|
A 10----10----10----10----10----10----10----10----8-----8-----8-----8-----8-----8-----8-----8-----|
E ------------------------------------------------------------------------------------------------|
  o-----o-----o-----o-----o-----o-----o-----o-----o-----o-----o-----o-----o-----o-----o-----o-----|

  2:57
E ------------------------------------------------------------------------------------------------|
B ------------------------------------------------------------------------------------------------|
G 13----13----13----13----13----13----13----13----15----------------------------------------------|
D x-----x-----x-----x-----x-----x-----x-----x-----x-----------------------------------------------|
A 11----11----11----11----11----11----11----11----13----------------------------------------------|
E ------------------------------------------------------------------------------------------------|
  o-----o-----o-----o-----o-----o-----o-----o-----o-----------------------------------------------|

  3:00
E ------------------------------------------------------------------------------------------------|
B ------------------------------------------------------------------------------------------------|
G 12----12----12----12----12----12----12----12----12----12----12----12----12----12----12----12----|
D x-----x-----x-----x-----x-----x-----x-----x-----x-----x-----x-----x-----x-----x-----x-----x-----|
A 10----10----10----10----10----10----10----10----10----10----10----10----10----10----10----10----|
E ------------------------------------------------------------------------------------------------|
  o-----o-----o-----o-----o-----o-----o-----o-----o-----o-----o-----o-----o-----o-----o-----o-----|

  3:03
E ------------------------------------------------------------------------------------------------|
B ------------------------------------------------------------------------------------------------|
G 8-----8-----8-----8-----8-----8-----8-----8-----10----10----10----10----13----13----13----13----|
D x-----x-----x-----x-----x-----x-----x-----x-----x-----x-----x-----x-----x-----x-----x-----x-----|
A 6-----6-----6-----6-----6-----6-----6-----6-----8-----8-----8-----8-----11----11----11----11----|
E ------------------------------------------------------------------------------------------------|
  o-----o-----o-----o-----o-----o-----o-----o-----o-----o-----o-----o-----o-----o-----o-----o-----|

  3:06
E ------------------------------------------------------------------------------------------------|
B ------------------------------------------------------------------------------------------------|
G 12----12----12----12----12----12----12----12----13----13----13----13----12----12----12----12----|
D x-----x-----x-----x-----x-----x-----x-----x-----x-----x-----x-----x-----x-----x-----x-----x-----|
A 10----10----10----10----10----10----10----10----11----11----11----11----10----10----10----10----|
E ------------------------------------------------------------------------------------------------|
  o-----o-----o-----o-----o-----o-----o-----o-----o-----o-----o-----o-----o-----o-----o-----o-----|

  3:09
E ------------------------------------------------------------------------------------------------|
B ------------------------------------------------------------------------------------------------|
G 8-----8-----8-----8-----8-----8-----8-----8-----10----10----10----10----8-----8-----8-----8-----|
D x-----x-----x-----x-----x-----x-----x-----x-----x-----x-----x-----x-----x-----x-----x-----x-----|
A 6-----6-----6-----6-----6-----6-----6-----6-----8-----8-----8-----8-----6-----6-----6-----6-----|
E ------------------------------------------------------------------------------------------------|
  o-----o-----o-----o-----o-----o-----o-----o-----o-----o-----o-----o-----o-----o-----o-----o-----|

  3:11
E ------------------------------------------------------------------------------------------------|
B ------------------------------------------------------------------------------------------------|
G 12----12----12----12----12----12----12----12----12----12----12----12----12----12----12----12----|
D x-----x-----x-----x-----x-----x-----x-----x-----x-----x-----x-----x-----x-----x-----x-----x-----|
A 10----10----10----10----10----10----10----10----10----10----10----10----10----10----10----10----|
E ------------------------------------------------------------------------------------------------|
  o-----o-----o-----o-----o-----o-----o-----o-----o-----o-----o-----o-----o-----o-----o-----o-----|

  3:14
E ------------------------------------------------------------------------------------------------|
B ------------------------------------------------------------------------------------------------|
G 8-----8-----8-----8-----8-----8-----8-----8-----10----10----10----10----13----13----13----13----|
D x-----x-----x-----x-----x-----x-----x-----x-----x-----x-----x-----x-----x-----x-----x-----x-----|
A 6-----6-----6-----6-----6-----6-----6-----6-----8-----8-----8-----8-----11----11----11----11----|
E ------------------------------------------------------------------------------------------------|
  o-----o-----o-----o-----o-----o-----o-----o-----o-----o-----o-----o-----o-----o-----o-----o-----|

  3:17
E ------------------------------------------------------------------------------------------------|
B ------------------------------------------------------------------------------------------------|
G 12----12----12----12----12----12----12----12----13----13----13----13----12----12----12----12----|
D x-----x-----x-----x-----x-----x-----x-----x-----x-----x-----x-----x-----x-----x-----x-----x-----|
A 10----10----10----10----10----10----10----10----11----11----11----11----10----10----10----10----|
E ------------------------------------------------------------------------------------------------|
  o-----o-----o-----o-----o-----o-----o-----o-----o-----o-----o-----o-----o-----o-----o-----o-----|

  3:20
E ------------------------------------------------------------------------------------------------|
B ------------------------------------------------------------------------------------------------|
G 8-----8-----8-----8-----8-----8-----8-----8-----10----------------------8-----------------------|
D x-----x-----x-----x-----x-----x-----x-----x-----x-----------------------x-----------------------|
A 6-----6-----6-----6-----6-----6-----6-----6-----8-----------------------6-----------------------|
E ------------------------------------------------------------------------------------------------|
  o-----o-----o-----o-----o-----o-----o-----o-----o-----------------------o-----------------------|

  3:23
E ------------------------------------------------------------------------------------------------|
B ------------------------------------------------------------------------------------------------|
G 5-----------------------------------------------------------------------------------------------|
D 5-----------------------------------------------------------------------------------------------|
A 3-----------------------------------------------------------------------------------------------|
E ------------------------------------------------------------------------------------------------|
  o-----------------------------------------------------------------------------------------------|

  3:26
E ------------------------------------------------------------------------------------------------|
B ------------------------------------------------------------------------------------------------|
G ------------------------------------------------------------------------------------------------|
D ------------------------------------------------------------------------------------------------|
A ------------------------------------------------------------------------------------------------|
E ------------------------------------------------------------------------------------------------|
  ------------------------------------------------------------------------------------------------|

  3:28
E ------------------------------------------------------------------------------------------------|
B ------------------------------------------------------------------------------------------------|
G ------------------------------------------------------------------------------------------------|
D ------------------------------------------------------------------------------------------------|
A ------------------------------------------------------------------------------------------------|
E ------------------------------------------------------------------------------------------------|
  ------------------------------------------------------------------------------------------------|

  3:31
E ------------------------------------------------------------------------------------------------|
B ------------------------------------------------------------------------------------------------|
G ------------------------------------------------------------------------------------------------|
D ------------------------------------------------------------------------------------------------|
A ------------------------------------------------------------------------------------------------|
E ------------------------------------------------------------------------------------------------|
  ------------------------------------------------------------------------------------------------|

  3:34
E ------------------------------------------------------------------------------------------------|
B ------------------------------------------------------------------------------------------------|
G 9-----9-----9-----9-----11----11----11----11----13----13----13----13----9-----9-----9-----9-----|
D x-----x-----x-----x-----x-----x-----x-----x-----x-----x-----x-----x-----x-----x-----x-----x-----|
A 7-----7-----7-----7-----9-----9-----9-----9-----11----11----11----11----7-----7-----7-----7-----|
E ------------------------------------------------------------------------------------------------|
  o-----o-----o-----o-----o-----o-----o-----o-----o-----o-----o-----o-----o-----o-----o-----o-----|

  3:37
E ------------------------------------------------------------------------------------------------|
B ------------------------------------------------------------------------------------------------|
G 8-----8-----8-----8-----16----16----16----16----14----14----14----14----9-----9-----9-----9-----|
D x-----x-----x-----x-----x-----x-----x-----x-----x-----x-----x-----x-----x-----x-----x-----x-----|
A 6-----6-----6-----6-----14----14----14----14----12----12----12----12----7-----7-----7-----7-----|
E ------------------------------------------------------------------------------------------------|
  o-----o-----o-----o-----o-----o-----o-----o-----o-----o-----o-----o-----o-----o-----o-----o-----|

  3:40
E ------------------------------------------------------------------------------------------------|
B ------------------------------------------------------------------------------------------------|
G 13----13----13----13----13----13----13----13----11----11----11----11----11----11----11----11----|
D x-----x-----x-----x-----x-----x-----x-----x-----x-----x-----x-----x-----x-----x-----x-----x-----|
A 11----11----11----11----11----11----11----11----9-----9-----9-----9-----9-----9-----9-----9-----|
E ------------------------------------------------------------------------------------------------|
  o-----o-----o-----o-----o-----o-----o-----o-----o-----o-----o-----o-----o-----o-----o-----o-----|

  3:42
E ------------------------------------------------------------------------------------------------|
B ------------------------------------------------------------------------------------------------|
G 14----14----14----14----14----14----14----14----13----13----13----13----13----13----13----13----|
D x-----x-----x-----x-----x-----x-----x-----x-----x-----x-----x-----x-----x-----x-----x-----x-----|
A 12----12----12----12----12----12----12----12----11----11----11----11----11----11----11----11----|
E ------------------------------------------------------------------------------------------------|
  o-----o-----o-----o-----o-----o-----o-----o-----o-----o-----o-----o-----o-----o-----o-----o-----|

  3:45
E ------------------------------------------------------------------------------------------------|
B ------------------------------------------------------------------------------------------------|
G 9-----9-----9-----9-----11----11----11----11----13----13----13----13----9-----9-----9-----9-----|
D x-----x-----x-----x-----x-----x-----x-----x-----x-----x-----x-----x-----x-----x-----x-----x-----|
A 7-----7-----7-----7-----9-----9-----9-----9-----11----11----11----11----7-----7-----7-----7-----|
E ------------------------------------------------------------------------------------------------|
  o-----o-----o-----o-----o-----o-----o-----o-----o-----o-----o-----o-----o-----o-----o-----o-----|

  3:48
E ------------------------------------------------------------------------------------------------|
B ------------------------------------------------------------------------------------------------|
G 8-----8-----8-----8-----16----16----16----16----14----14----14----14----9-----9-----9-----9-----|
D x-----x-----x-----x-----x-----x-----x-----x-----x-----x-----x-----x-----x-----x-----x-----x-----|
A 6-----6-----6-----6-----14----14----14----14----12----12----12----12----7-----7-----7-----7-----|
E ------------------------------------------------------------------------------------------------|
  o-----o-----o-----o-----o-----o-----o-----o-----o-----o-----o-----o-----o-----o-----o-----o-----|

  3:51
E ------------------------------------------------------------------------------------------------|
B ------------------------------------------------------------------------------------------------|
G 13----13----13----13----13----13----13----13----11----11----11----11----11----11----11----11----|
D x-----x-----x-----x-----x-----x-----x-----x-----x-----x-----x-----x-----x-----x-----x-----x-----|
A 11----11----11----11----11----11----11----11----9-----9-----9-----9-----9-----9-----9-----9-----|
E ------------------------------------------------------------------------------------------------|
  o-----o-----o-----o-----o-----o-----o-----o-----o-----o-----o-----o-----o-----o-----o-----o-----|

  3:54
E ------------------------------------------------------------------------------------------------|
B ------------------------------------------------------------------------------------------------|
G 14----14----14----14----14----14----14----14----16----------------------------------------------|
D x-----x-----x-----x-----x-----x-----x-----x-----x-----------------------------------------------|
A 12----12----12----12----12----12----12----12----14----------------------------------------------|
E ------------------------------------------------------------------------------------------------|
  o-----o-----o-----o-----o-----o-----o-----o-----o-----------------------------------------------|

  3:57
E ------------------------------------------------------------------------------------------------|
B ------------------------------------------------------------------------------------------------|
G ------------------------------------------------------------------------------------------------|
D ------------------------------------------------------------------------------------------------|
A ------------------------------------------------------------------------------------------------|
E ------------------------------------------------------------------------------------------------|
  ------------------------------------------------------------------------------------------------|

  3:59
E ------------------------------------------------------------------------------------------------|
B ------------------------------------------------------------------------------------------------|
G ------------------------------------------------6-----------------------------------------------|
D ------------------------------------------------x-----------------------------------------------|
A ------------------------------------------------4-----------------------------------------------|
E ------------------------------------------------------------------------------------------------|
  ------------------------------------------------o-----------------------------------------------|

  4:02
E ------------------------------------------------------------------------------------------------|
B ------------------------------------------------------------------------------------------------|
G ------------------------------------------------------------------------6-----------------------|
D ------------------------------------------------------------------------x-----------------------|
A ------------------------------------------------------------------------4-----------------------|
E ------------------------------------------------------------------------------------------------|
  ------------------------------------------------------------------------o-----------------------|

  4:05
E ------------------------------------------------------------------------------------------------|
B ------------------------------------------------------------------------------------------------|
G ------------------------------------------------------------------------8-----------------------|
D ------------------------------------------------------------------------x-----------------------|
A ------------------------------------------------------------------------6-----------------------|
E ------------------------------------------------------------------------------------------------|
  ------------------------------------------------------------------------o-----------------------|

  4:08
E ------------------------------------------------------------------------------------------------|
B ------------------------------------------------------------------------------------------------|
G ------------------------------------------------------------------------------------------------|
D ------------------------------------------------------------------------------------------------|
A ------------------------------------------------------------------------------------------------|
E ------------------------------------------------------------------------------------------------|
  ------------------------------------------------------------------------------------------------|

  4:11
E ------------------------------------------------------------------------------------------------|
B ------------------------------------------------------------------------------------------------|
G ------------------------6-----------------------------------------------------------------------|
D ------------------------x-----------------------------------------------------------------------|
A ------------------------4-----------------------------------------------------------------------|
E ------------------------------------------------------------------------------------------------|
  ------------------------o-----------------------------------------------------------------------|
Suggest correction
Creating personal tab
Creating personal tab
You can edit any tab online and save it as your Personal.

You can edit, replace or remove any tab part or add personal notes – all changes will be seen only by you.

Personal tabs can be accessed anytime from any device, even offline.
Learn more »
Give kudos to tab author, rate the tab!
1 2 3 4 5
comments
print report bad tab
guest
You may want to rate the tab now too:
select rating
Wanna post a correction for this tab? Suggest correction