Oops, an error
Loading. Please wait.

Resident Evil 3 Nemesis Tab

5,160 views 1 this week
6 commentsread comments
1 2 3 4 5
x 6
add to favorites
launch autoscroll
font size
0
reset
how to read this tab
guitar tuner
×
Best way to learn
"Resident Evil 3 Nemesis"
Autoscroll
slow
fast
+/-
esc
set tempo
stop
Author
This is the main theme played at the beggining of the game. The cool theme.
If i were you I'd use an octave or a heavy octave with distortion to make it sound good.

/-Slide
PM-palm mute

1|----------------------------------------------------------------|
2|----------------------------------------------------------------|
3|----------------------------------------------------------------|
4|------------------------------------------5---5/3--3------------|
5|-3--5-6--3-5---8-6-5-3---3--5-6-3-5---6-8---6----------3-3--333-|
6|----------------------------------------------------------------|
                                                         PM   PMPM

Have fun

AIM-Misfits3388
Suggest correction
comments
print report bad tab
6 comments total. Showing first comments.
0 reply
cocox2 640 Dec 07, 2004 07:00 PM

can you send me an email with a recording of you playing the song? because i can't find the rythm


my email is familiavespoli@jetband.com.ar
anyway, please write me

0 reply
SkaterD2002 600 Dec 13, 2004 07:00 PM

Hey i tried to email you and it says your email dont exist... Try to IM me on aim or get a free email on Hotmail..

0 reply
BirdRATM 73 Feb 11, 2007 02:35 PM

I like this better...

e|-----------------------------------------------------------------|
b|-----------------------------------------------------------------|
g|-----------------------------------------------------------------|
d|-------------------------------------------5---5-5/3--3----------|
a|-3--5-6--3-5---8-6-5-6-5--3--5-6-3-5---6-8---6----------3-3--333-|
e|-----------------------------------------------------------------|
PM PMPM

Also, if you add power chords in it to add that DUN DUN effect...

e|--------------------------------------------------------------------|
b|--------------------------------------------------------------------|
g|-5--7----------10-8--------5--7---------8-10------------------------|
d|-5--7----------10-8--------5--7---------8-10--5---5-5/3--3----------|
a|-3--5-6--3-5---8--6-5-6-5--3--5-6-3-5---6-8-----6----------3-3--333-|
e|--------------------------------------------------------------------|
PM PMPM

Still five S.T.A.R.S. (I'm corny) for the backbone. :)

guest
You may want to rate the tab now too:
select rating
Wanna post a correction for this tab? Suggest correction