Oops, an error
Loading. Please wait.

Rocksmith - Opening Title Tab

25,552 views 36 this week
no commentswrite comment
1 2 3 4 5
excellent!
x 13
add to favorites
launch autoscroll
font size
0
reset
how to read this tab
guitar tuner
Autoscroll
slow
fast
+/-
esc
set tempo
stop
Help us to improve Ultimate-Guitar.com Take our survey!
×
Author
Difficulty
intermediate
Rocksmith

GAME CREDITS: Relative to original music and involved companies.

Game Developer - Ubisoft Entertainment

Copyright © 2011 Emergent Game Technologies
(Emergent / Lightspeed / Gamebryo)

Powered by Wwise © 2006-2011
Audiokinetic Inc.
All Rights Reserved

Uses Scaleform GF x ©2010 
Scaleform Corporation
All rights reserved

Game Designers
 - Marc Fontier
 - Matt Ngyuyen

Producer
 - Jason V. Schroeder

Artists
 - Andy Libbleton
 - Amandeep Kaur

Worldwide Music Director
 - Dider Lord

Original Music
 - Chris Lee
 - Brian McCune
 - Seth Chapia
 - Brendan West
 - Matt Montgomery
 - Nicholas Bonardi
 - Zhang Xin

 



e|-----------------------------------------------------------------------|
B|-----------------------------------------------------------------------|
G|-----------------------------------------------------------------------|
D|-----------------------------------------------------------------------|
A|-------5h7------------5h7-------------5h7-------------------5h7--------|
E|-0-----(0)------0-----(0)-------0-----(0)--------3b---0-----(0)--------|



e|------------------------------------------------------------------|
B|------------------------------------------------------------------|
G|------------------------------------------------------------------|
D|-------------5--------------5---------------5ph-------------------|
A|-------5h7~~----------5h7~~-----------5h7~~-----------------5h7---|
E|-0-----(0)------0-----(0)-------0-----(0)--------0-----(0)--------|



e|-----------------------------------------------------------------------|
B|-----------------------------------------------------------------------|
G|-----------------------------------------------------------------------|
D|-----------5h7p5------------------5h7p5-------------------------5h7p5~-|
A|-(7)-7-7------------5h7--7---7-7----------------5h7---7---7-7----------|
E|---------0--------0----0----0---0------------0------0----0----0--------|
          \_/            \________/                   \_________/

                           
Only P.M. low E string


e|-------------------------------------|
B|-------------------------------------|
G--------------------------------------|
D|--------------------7s8s7p5-7p5------|
A|-----5h7---7----7---------------7p5--|
E|--0------0----0---0------------------|
           \________/


e|------------------------------------------------------|
B|------------------------------------------------------|
G|------------------------------------------------------|
D|------------------------------------------------------|
A|------------0h2-----3s5-----5s7-----7s10--------------|
E|-0--3h5--0-------0-------0-------0--------------------|



e|-------------------------------------------------------|  \
B|-----------12-12x12-12---------------------------------|  |
G|-----------12-12x12-12---------------------------------|  |o  Play
D|-----------12-12x12-12---12h14p12-----12---------------|  |o  3x's
A|----12h14--------------------------14----12h14---------|  |   
E|-0---------(0)-----------------------------------------|  /



e|--------------12------------12------------12-12-12-------------|
B|----12--------12------------12------------12-12-12----12-------|
G|----14fb(r)fb-----14fb(r)fb-----14fb(r)fb----------14-14fb~~~--|
D|---------------------------------------------------------------|
A|---------------------------------------------------------------|
E|-0-------------------------------------------------------------|



e|----------------------------------------------|  \
B|-----------12-12x12-12--12h14-14-14-14--------|  |
G|-----------12-12x12-12--12h14-14-14-14--------|  |o  Play
D|-----------12-12x12-12--12h14-14-14-14--------|  |o  2x's 
A|----12h14-------------------------------------|  |
E|-0--------------------------------------------|  /



e|---------------------------------------0----------------------------|
B|----------12-12x12-12------------------0----------------------------|
G|----------12-12x12-12-----------------------------------------------|
D|----------12-12x12-12////-------------------------------------------|
A|----12h14-----------------------------------------14--12--11~~~~~~~-|
E|-0------------------------5h7-3h5-0---------------------------------|


Tuning: Standard

Tab Legend

h- hammer on
p- pull off
x- mute
s- slide
b- bend half step
fb- bend full step
r- release bend
()- note rings
/// - slide down neck
~ - vibrato
\_/ - palm mute section
Suggest correction
comments
print report bad tab
guest
You may want to rate the tab now too:
select rating
Please do not post tabs as comments. Select "correction" instead!