Oops, an error
Loading. Please wait.

Rollercoaster Tycoon 2 - Rock Style 2 tab

version 1
version 1

Whole song

Interactive

1,067 views 1 this week
no commentswrite comment
1 2 3 4 5
2 more votes to show rating
add to favorites
×
Save as Personal and add changes to this tab that will be seen only by you. Learn more ›
×
You can save this tab as Personal to edit and correct it or add notes. All changes will be seen only by you. Learn more »
launch autoscroll
font size
0
reset
how to read this tab
guitar tuner
edit
Autoscroll
slow
fast
+/-
esc
set tempo
stop
Author
Difficulty
                            Big Rock (Rock Style 2)                             


                                                                Allister Brimble
Tempo: 104 bpm
Instruments tabbed:
* Lead Guitar
* Rhythm Guitar
* Bass Guitar

Lead Guitar



     W                   W                   W                 
E||-------------------|-------------------|-------------------|
B||-------------------|-------------------|-------------------|
G||-------------------|-------------------|-------------------|
D||-------------------|-------------------|-------------------|
A||-------------------|-------------------|-------------------|
D||-------------------|-------------------|-------------------|


  W                   W                   W                   W                 
-------------------|-------------------|-------------------|-------------------|
-------------------|-------------------|-------------------|-------------------|
-------------------|-------------------|-------------------|-------------------|
-------------------|-------------------|-------------------|-------------------|
-------------------|-------------------|-------------------|-------------------|
-------------------|-------------------|-------------------|-------------------|


  W                   W                   W                   W                 
-------------------|-------------------|-------------------|-------------------|
-------------------|-------------------|-------------------|-------------------|
-------------------|-------------------|-------------------|-------------------|
-------------------|-------------------|-------------------|-------------------|
-------------------|-------------------|-------------------|-------------------|
-------------------|-------------------|-------------------|-------------------|


  W                      S  S  S  S  S  S  S  S  S  S  S  S  S  S  S  S  
-------------------||---12-10----12-10----12-10----12-10----12-10----12-|
-------------------||---------12-------12-------12-------12-------12----|
-------------------||*--------------------------------------------------|
-------------------||*--------------------------------------------------|
-------------------||---------------------------------------------------|
-------------------||---------------------------------------------------|


   S  S  S  S  S  S  S  S  S  S  S  S  S  S  S  S  
--10----12-10----12-10----12-10----12-10----12-10-|
-----12-------12-------12-------12-------12-------|
--------------------------------------------------|
--------------------------------------------------|
--------------------------------------------------|
--------------------------------------------------|


   S  S  S  S  S  S  S  S  S  S  S  S  S  S  S  S  
-----12-10----12-10----12-10----12-10----12-10----|
--12-------12-------12-------12-------12-------12-|
--------------------------------------------------|
--------------------------------------------------|
--------------------------------------------------|
--------------------------------------------------|


                                            PH                               
   S  S  S  S  S  S  S  S  S  S  S  S  S    E.        H.             E  S S  
--12-10----12-10----12-10----12-10----12---------||-------------------------|
--------12-------12-------12-------12------------||--10~-------------L--8---|
-----------------------------------------<>12---*||-----------------------9-|
------------------------------------------------*||-------------------------|
-------------------------------------------------||-------------------------|
-------------------------------------------------||-------------------------|


  S S E  E  E  E  E  E  E      Q     Q     E  E  E  E   
---------------------------|---------------------------|
--8------------------8-----|--10----10----10--8--------|
----9-7-----7--L--9-----9--|---------------------9--7--|
---------9-----------------|---------------------------|
---------------------------|---------------------------|
---------------------------|---------------------------|


  E  E  Q     E  E  E  E      H        Q      S S S S  
--------------------------|---------------------------|
--------------------8-----|--10--------L~-----L---8---|
--L--9--9~----L--9-----9--|-------------------------9-|
--------------------------|---------------------------|
--------------------------|---------------------------|
--------------------------|---------------------------|


  S S E  E  E  E  E  E  E      Q     Q     E  E  E  E   
---------------------------|---------------------------|
--8------------------8-----|--10----12----10--8--------|
----9-7-----7--L--9-----9--|---------------------9--7--|
---------9-----------------|---------------------------|
---------------------------|---------------------------|
---------------------------|---------------------------|


  E  E  Q     Q.     E    
------------------------||
------------------------||
--L--9--9~----L---------||
------------------------||
------------------------||
------------------------||



Rhythm Guitar



     Esus4       F#sus4                Asus4    Bsus4            
     Q     E  S  S      Q    S E.      Q    E   E    Q    S E.   
E||--------------------------------|----------------------------|
B||--------------------------------|----------------------------|
G||--2--------2s-4------L----L-----|--/7-------/9----L----L-----|
D||--2--------2s-4------L----L-----|--/7-------/9----L----L-----|
A||--------------------------------|----------------------------|
D||--------------------------------|----------------------------|


  A5      B5               D5      E5            
  Q    E  E  Q    S E.     Q    E  E  Q    Q     
------------------------|-----------------------|
------------------------|-----------------------|
--2-------4--L----L-----|--7-------9--L---------|
--2-------4--L----L-----|--7-------9--L---------|
--0-------2--L----L-----|--5-------7--L---------|
------------------------|-----------------------|


  Esus4       F#sus4                Asus4    Bsus4            
  Q     E  S  S      Q    S E.      Q    E   E    Q    S E.   
--------------------------------|----------------------------|
--------------------------------|----------------------------|
--2--------2s-4------L----L-----|--/7-------/9----L----L-----|
--2--------2s-4------L----L-----|--/7-------/9----L----L-----|
--------------------------------|----------------------------|
--------------------------------|----------------------------|


  A5      B5               D5      E5              Esus4    F#sus4             
  Q    E  E  Q    S E.     Q    E  E  Q    Q       Q     E  E      Q    S E.   
------------------------|-----------------------|-----------------------------|
------------------------|-----------------------|-----------------------------|
--2-------4--L----L-----|--7-------9--L---------|--2--------4------L----L-----|
--2-------4--L----L-----|--7-------9--L---------|--2--------4------L----L-----|
--0-------2--L----L-----|--5-------7--L---------|-----------------------------|
------------------------|-----------------------|-----------------------------|


  Asus4    Bsus4               Esus4    F#sus4             
  Q     E  E     Q    S E.     Q     E  E      Q    S E.   
----------------------------|-----------------------------|
----------------------------|-----------------------------|
--7--------9-----L----L-----|--2--------4------L----L-----|
--7--------9-----L----L-----|--2--------4------L----L-----|
----------------------------|-----------------------------|
----------------------------|-----------------------------|


  Asus4       Bsus4                 Esus4    F#sus4             
  Q     E  S  S     Q    S E.       Q     E  E      Q    S E.   
-------------------------------||------------------------------|
-------------------------------||------------------------------|
-------------------------------||*--2--------4------L----L-----|
--0--------0s-2-----L----L-----||*--2--------4------L----L-----|
--0--------0s-2-----L----L-----||------------------------------|
-------------------------------||------------------------------|


  Asus4    Bsus4               Esus4    F#sus4             
  Q     E  E     Q    S E.     Q     E  E      Q    S E.   
----------------------------|-----------------------------|
----------------------------|-----------------------------|
--7--------9-----L----L-----|--2--------4------L----L-----|
--7--------9-----L----L-----|--2--------4------L----L-----|
----------------------------|-----------------------------|
----------------------------|-----------------------------|


  Asus4       Bsus4                 Esus4    F#sus4             
  Q     E  S  S     Q    S E.       Q     E  E      Q    S E.   
--------------------------------||-----------------------------|
--------------------------------||-----------------------------|
-------------------------------*||--2--------4------L----L-----|
--0--------0s-2-----L----L-----*||--2--------4------L----L-----|
--0--------0s-2-----L----L------||-----------------------------|
--------------------------------||-----------------------------|


  Asus4    Bsus4               Esus4    F#sus4             
  Q     E  E     Q    S E.     Q     E  E      Q    S E.   
----------------------------|-----------------------------|
----------------------------|-----------------------------|
--7--------9-----L----L-----|--2--------4------L----L-----|
--7--------9-----L----L-----|--2--------4------L----L-----|
----------------------------|-----------------------------|
----------------------------|-----------------------------|


  Asus4       Bsus4               Esus4    F#sus4             
  Q     E  S  S     Q    S E.     Q     E  E      Q    S E.   
-------------------------------|-----------------------------|
-------------------------------|-----------------------------|
-------------------------------|--2--------4------L----L-----|
--0--------0s-2-----L----L-----|--2--------4------L----L-----|
--0--------0s-2-----L----L-----|-----------------------------|
-------------------------------|-----------------------------|


  Asus4    Bsus4               Esus4    F#sus4             
  Q     E  E     Q    S E.     Q     E  E      Q    S E.   
----------------------------|-----------------------------|
----------------------------|-----------------------------|
--7--------9-----L----L-----|--2--------4------L----L-----|
--7--------9-----L----L-----|--2--------4------L----L-----|
----------------------------|-----------------------------|
----------------------------|-----------------------------|


  Asus4       Bsus4              
  Q     E  S  S     Q    S E.    
-------------------------------||
-------------------------------||
-------------------------------||
--0--------0s-2-----L----L-----||
--0--------0s-2-----L----L-----||
-------------------------------||



Bass



     W                   W                   W                 
G||-------------------|-------------------|-------------------|
D||-------------------|-------------------|-------------------|
A||-------------------|-------------------|-------------------|
D||-------------------|-------------------|-------------------|


  W                   W                   W                   W                 
-------------------|-------------------|-------------------|-------------------|
-------------------|-------------------|-------------------|-------------------|
-------------------|-------------------|-------------------|-------------------|
-------------------|-------------------|-------------------|-------------------|


  W                   Q    E  E  H           Q    E  E  H         
-------------------|----------------------|----------------------|
-------------------|----------------------|----------------------|
-------------------|--0-------2--L--------|----------------------|
-------------------|----------------------|--0-------2--L--------|


  Q    E  E  H           E.  S E  E  H             Q    E  E  Q.     E   
----------------------|-----------------------||------------------------|
----------------------|-----------------------||*-----------------------|
--0-------2--L--------|------5----------------||*--0-------2--L---------|
----------------------|--0-----0--2--L--------||------------------------|


  Q    E  E  Q.     E     Q    E  E  Q.     E     E.  S E  E  Q    S E.     
-----------------------|-----------------------|--------------------------||
-----------------------|-----------------------|-------------------------*||
-----------------------|--0-------2--L---------|------5------------------*||
--0-------2--L---------|-----------------------|--0-----0--2--L----L------||


  Q    E  E  Q.     E     Q    E  E  Q.     E     Q    E  E  Q.     E   
-----------------------|-----------------------|-----------------------|
-----------------------|-----------------------|-----------------------|
--0-------2--L---------|-----------------------|--0-------2--L---------|
-----------------------|--0-------2--L---------|-----------------------|


  E.  S E  E  Q    S E.     Q    E  E  Q.     E     Q    E  E  Q.     E   
-------------------------|-----------------------|-----------------------|
-------------------------|-----------------------|-----------------------|
------5------------------|--0-------2--L---------|-----------------------|
--0-----0--2--L----L-----|-----------------------|--0-------2--L---------|


  Q    E  E  Q.     E     E.  S E  E  Q    S E.    
-----------------------|-------------------------||
-----------------------|-------------------------||
--0-------2--L---------|------5------------------||
-----------------------|--0-----0--2--L----L-----||




Duration Legend
---------------
W - whole
H - half
Q - quarter
E - 8th
S - 16th
T - 32nd
X - 64th
. - note dotted
|-n-|  - n-tuplets


Tablature Legend
----------------
L - tied note
x - dead note
g - grace note
(n) - ghost note
> - accentuded note
NH - natural harmonic
AH - artificial harmonic
TH - tapped harmonic
SH - semi harmonic
PH - pitch harmonic
h - hammer on
p - pull off
b - bend
br - bendRelease
pb - preBend
pbr - preBendRelease
brb - bendReleaseBend
\n/ - tremolo bar dip
\n - tremolo bar dive
-/n - tremolo bar Release up
/n\ - tremolo bar inverted dip
/n - tremolo bar return
-\n - tremolo bar Release down
S - shift slide
s - legato slide
/ -  slide into from below or out of upwards
\ -  slide into from above or out of downwards
~ - vibrato
W - wide vibrato
tr - trill
TP - tremolo picking
T - tapping
S - slap
P - pop
< - fade in
^ - brush up
v - brush down

            
            
Suggest correction
Creating personal tab
Creating personal tab
You can edit any tab online and save it as your Personal.

You can edit, replace or remove any tab part or add personal notes – all changes will be seen only by you.

Personal tabs can be accessed anytime from any device, even offline.
Learn more »
Give kudos to tab author, rate the tab!
1 2 3 4 5
comments
print report bad tab
guest
You may want to rate the tab now too:
select rating
Wanna post a correction for this tab? Suggest correction