Oops, an error
Loading. Please wait.

Rushn Attack - Stage 1 Bass Tab

version 1
version 1

Whole song

Interactive

4 views 1 this week
no commentswrite comment
1 2 3 4 5
3 more votes to show rating
add to favorites
launch autoscroll
font size
0
reset
guitar tuner
Autoscroll
slow
fast
+/-
esc
set tempo
stop
Help us to improve Ultimate-Guitar.com Take our survey!
×
Author
Difficulty
advanced
#----------------------------------PLEASE NOTE---------------------------------#
#This file is the author's own work and represents their interpretation of the #
#song. You may only use this file for private study, scholarship, or research. #
#------------------------------------------------------------------------------##

Rush'n Attack (NES) - Stage 1 theme...on bass!!!

Gtr I (B E A D G) - 'bass'

  Q=110
 6/8
  Gtr I
    S  S  S  S  S  S  S  S  S  S  S  S    S  S  S  S  S  S  S  S  S  S  S  S
G|-------------------------------------|-------------------------------------|
D|-------10-------10-------10-------10-|-------10-------10-------------------|
A|----11-------11-------11-------11----|----11-------11----11-11-11----------|
E|-13-------13-------13-------13-------|-13-------13-------------------------|
B|-------------------------------------|----------------------------13-13-13-|


    S  S  S  S  S  S  S  S  S  S  S  S    S  S  S  S  S  S  S  S  S  S  S  S
G|-------------------------------------|---------------------------------------|
D|-------10-------10-------10-------10-|-------10-------10---------------------|
A|----11-------11-------11-------11----|----11-------11----11-11-11------------|
E|-13-------13-------13-------13-------|-13-------13---------------------------|
B|-------------------------------------|----------------------------13-13-13---|


     S S S S S S S S S S S S   S S S S S S  S  S  S  S  S  S
G||--------------------------|-------------------------------|
D||o-------------------------|-------------------------------|
A||--8-8-8-8-8-8-8-8-8-8-8-8-|-------------------------------|
E||o-------------------------|-9-9-9-9-9-9-11-11-11-11-11-11-|
B||--------------------------|-------------------------------|


   S S S S S S S S S S S S   S S S S S S  S  S  S  S  S  S
G|-------------------------|----------------------------------|
D|-------------------------|----------------------------------|
A|-8-8-8-8-8-8-8-8-8-8-8-8-|----------------------------------|
E|-------------------------|-9-9-9-9-9-9-11-11-11-11-11-11----|
B|-------------------------|----------------------------------|


   S S S S S S S S S S S S   S S S S S S  S  S  S  S  S  S
G|-------------------------|-------------------------------|
D|-------------------------|-------------------------------|
A|-8-8-8-8-8-8-8-8-8-8-8-8-|-------------------------------|
E|-------------------------|-9-9-9-9-9-9-11-11-11-11-11-11-|
B|-------------------------|-------------------------------|


   S S S S S S S S S S S S   S S  S S S  S  S  S  S  S  S  S
G|-------------------------|------------------------------------|
D|-------------------------|------------------------------------|
A|-8-8-8-8-8-8-8-8-8-8-8-8-|---8-11---8-11----10-13----10-13----|
E|-------------------------|-9------9------11-------11----------|
B|-------------------------|------------------------------------|


   S  S  S S  S  S S  S  S S  S  S    S  S  S  S  S  S  S  S  S  S  S  S
G|---------------------------------|-------------------------------------|
D|------10------10------10------10-|-------------------------------------|
A|-8-11----8-11----8-11----8-11----|-11-11-11-11-11-11-------------------|
E|---------------------------------|-------------------11-11-11-11-11-11-|
B|---------------------------------|-------------------------------------|


   S  S  S S  S  S S  S  S S  S  S    S  S  S  S  S  S  S  S  S  S  S  S
G|---------------------------------|----------------------------------------|
D|------10------10------10------10-|----------------------------------------|
A|-8-11----8-11----8-11----8-11----|-11-11-11-11-11-11----------------------|
E|---------------------------------|-------------------11-11-11-11-11-11----|
B|---------------------------------|----------------------------------------|


   S  S  S S  S  S S  S  S S  S  S    S  S  S  S  S  S  S  S  S  S  S  S
G|---------------------------------|-------------------------------------|
D|------10------10------10------10-|-------------------------------------|
A|-8-11----8-11----8-11----8-11----|-------------------------------------|
E|---------------------------------|----10-13----10-13----10-13----10-13-|
B|---------------------------------|-11-------11-------11-------11-------|


   S  S  S S  S  S S  S  S S  S  S    S  S  S  S  S  S  S  S  S  S  S  S
G|---------------------------------|----------------------------------------|
D|------10------10------10------10-|----------------------------------------|
A|-8-11----8-11----8-11----8-11----|----------------------------------------|
E|---------------------------------|----10-13----10-13----10-13----10-13----|
B|---------------------------------|-11-------11-------11-------11----------|


   W              W              W              W
G|--------------|--------------|--------------|------|
D|--------------|--------------|--------------|------|
A|--------------|--------------|--------------|------|
E|--------------|--------------|--------------|------|
B|--------------|--------------|--------------|------|


   S S S S S S S S S S S S    S  S  S  S  S  S  S  S  S  S  S  S
G|-------------------------|-------------------------------------|
D|-------------------------|-------------------------------------|
A|-8-8-8-8-8-8-8-8-8-8-8-8-|-11-11-11-11-11-11-------------------|
E|-------------------------|-------------------11-11-11-11-11-11-|
B|-------------------------|-------------------------------------|


   S S S S S S S S S S S S    S  S  S  S  S  S  S  S  S  S  S  S
G|-------------------------|-----------------------------------------||
D|-------------------------|----------------------------------------o||
A|-8-8-8-8-8-8-8-8-8-8-8-8-|-11-11-11-11-11-11-----------------------||
E|-------------------------|-------------------11-11-11-11-11-11----o||
B|-------------------------|-----------------------------------------||


************************************

| o reprise

************************************
Suggest correction
Give kudos to tab author, rate the tab!
1 2 3 4 5
comments
print report bad tab
guest
You may want to rate the tab now too:
select rating
Wanna post a correction for this tab? Suggest correction