Oops, an error
Loading. Please wait.

See You At The Safe House Ost Payday Tab

31 views 3 this week
no commentswrite comment
1 2 3 4 5
3 more votes to show rating
add to favorites
launch autoscroll
font size
0
reset
how to read this tab
guitar tuner
Autoscroll
slow
fast
+/-
esc
set tempo
stop
Help us to improve Ultimate-Guitar.com Take our survey!
×
Author
Difficulty
novice
SEE YOU AT THE SAFE HOUSE - PAYDAY: THE HEIST SOUNDTRACK


[Riff 1]

e|-----------------------------------------------|
B|-----------------------------------------------|
G|-----------------------------------------------|   
D|-----------------------------------------------|
A|-2-5-2-5-0---2-5-2-5-0---2-5-2-5-0---2-9-5-2---|
E|-0-3-0-3-2---0-3-0-3-2---0-3-0-3-2---0-7-3-0---|(x2)

e|------------|
B|------------|
G|------------|   
D|------------|
A|-2-5-2-5-0--|
E|-0-3-0-3-2--|

- All that is repeated twice -
- Toda esa parte se repite dos veces-


[Riff 2] 

(The palm mute part is played with a second guitar)
e|-------------------------------------------------------------------------------------------|
B|-------------------------------------------------------------------------------------------|
G|-------------------------------------------------------------------------------------------|   
D|-------------------------------------------------------------------------------------------|
A|-2-5-2-5-0------------------------------------2-5-2-5-0------------------------------------|
E|-0-3-0-3-2-0-0-0-0-0-0-0-0-0-0-0-0-0-0-0-0-0--0-3-0-3-2-0-0-0-0-0-0-0-0-0-0-0-0-0-0-0-0-0--|
          pm * * * * * * * * * * * * * * * * *         pm * * * * * * * * * * * * * * * * *

e|--------------------------------------------------------------------------|
B|--------------------------------------------------------------------------|
G|--------------------------------------------------------------------------|
D|--------------------------------------------------------------------------|
A|-2-5-2-5-0------------2-5-2-5-0------------2-5-2-5-0------------2-9-5-2---|
E|-0-3-0-3-2-0-0-0-0-0--0-3-0-3-2-0-0-0-0-0--0-3-0-3-2-0-0-0-0-0--0-7-3-0---|
          pm * * * * *         pm * * * * *         pm * * * * *

e|----------------------------------------------------------------------------|
B|----------------------------------------------------------------------------|
G|----------------------------------------------------------------------------|
D|----------------------------------------------------------------------------|
A|-2-5-2-5-0------------2-5-2-5-0------------2-5-2-5-0------------2-9-5-2/12--|
E|-0-3-0-3-2-0-0-0-0-0--0-3-0-3-2-0-0-0-0-0--0-3-0-3-2-0-0-0-0-0--0-7-3-0-----|
          pm * * * * *         pm * * * * *         pm * * * * *


[Riff 1]

e|-----------------------------------------------|
B|-----------------------------------------------|
G|-----------------------------------------------|   
D|-----------------------------------------------|
A|-2-5-2-5-0---2-5-2-5-0---2-5-2-5-0---2-9-5-2---|
E|-0-3-0-3-2---0-3-0-3-2---0-3-0-3-2---0-7-3-0---|(x3)


[Solo over that last riff 1]

e|-6b---8b---10b---0-6-7-0-6-7-0----0----------------6b---8b---10b---0-6-7-0-6-7-0----0--6b--|
B|-------------------------------8b------------------------------------------------8b--------|
G|-------------------------------------------------------------------------------------------|   
D|-------------------------------------------------------------------------------------------|
A|-------------------------------------------------------------------------------------------|
E|-------------------------------------------------------------------------------------------|

PD: If u want to play the bass, it is equal to the guitar.



************************************

| b  Bend
| /  Slide up

************************************
Suggest correction
Give kudos to tab author, rate the tab!
1 2 3 4 5
comments
print report bad tab
guest
You may want to rate the tab now too:
select rating
Wanna post a correction for this tab? Suggest correction