Oops, an error
Loading. Please wait.

Shadow Of The Beast - Opening tab

31 views 1 this week
no commentswrite comment
1 2 3 4 5
3 more votes to show rating
add to favorites
×
Save as Personal and add changes to this tab that will be seen only by you. Learn more ›
×
You can save this tab as Personal to edit and correct it or add notes. All changes will be seen only by you. Learn more »
launch autoscroll
font size
0
reset
how to read this tab
guitar tuner
edit
Autoscroll
slow
fast
+/-
esc
set tempo
stop
Author
Difficulty
tabbed by:    DropDeee
tuning:       Standard
effects:      minor delay/echo
video:        https://www.youtube.com/watch?v=3JZA_IAaN-Q


I have included two tabs, one for the higher key (first) and one for the lower key (below.)   
You may prefer the sound of one over the other, depending what tone you're going for.


 [Intro]

e|--------------------------------------------------------------|
B|--14~~---------15~~-------------------------------------------|
G|----------------------------13~~----------------fpb12~~~~~~~r-|
D|--------------------------------------------------------------|
A|--------------------------------------------------------------|
E|--------------------------------------------------------------|
                                          
e|--9-10hb--10--------------------------------------------------|
B|-------------fpb12r---12-14--(14)--(14)--(14)--(14)-----------|
G|--------------------------------------------------------------|
D|--------------------------------------------------------------|
A|--------------------------------------------------------------|
E|--------------------------------------------------------------|

e|--------------------------------------------------------------|
B|--19-17-fpb17r---17--fpb14r---17---14--(14)--(14)--(14)--(14)-|
G|--------------------------------------------------------------|
D|--------------------------------------------------------------|
A|--------------------------------------------------------------|
E|--------------------------------------------------------------|


 [Main Riff]

e|--17~~-----17-16-14-17-16-14-17~~-----17~~-----17-16-14-17-16-14-21~~--\--|
B|--------------------------------------------------------------------------|
G|--------------------------------------------------------------------------|
D|--------------------------------------------------------------------------|
A|--------------------------------------------------------------------------|
E|--------------------------------------------------------------------------|

e|--16~~-----16-14-12-16-14-12-16~~-----16~~-----16-14-12-16-14-12-16~~--\--|
B|--------------------------------------------------------------------------|
G|--------------------------------------------------------------------------|
D|--------------------------------------------------------------------------|
A|--------------------------------------------------------------------------|
E|--------------------------------------------------------------------------|

e|--------------------------------------------------------------9~~------\--|
B|--10~~------10-9-7-10-9-7-10~~------\-10~~------10-9-7-10-9-7-------------|
G|--------------------------------------------------------------------------|
D|--------------------------------------------------------------------------|
A|--------------------------------------------------------------------------|
E|--------------------------------------------------------------------------|

e|------------------------------------------------------------9----------\--|
B|--9~~-------9-7-5-9-7-5-9~~---------\-9~~-------9-7-5-9-7-5---------------|
G|--------------------------------------------------------------------------|
D|--------------------------------------------------------------------------|
A|--------------------------------------------------------------------------|
E|--------------------------------------------------------------------------|


 [Break]

e|--------------14--15--16-------------14--15--16--15--16------14------|
B|--14--14--17-----------------14--17----------------------17------14--|
G|---------------------------------------------------------------------|
D|---------------------------------------------------------------------|
A|---------------------------------------------------------------------|
E|---------------------------------------------------------------------|

e|---------------------------------------------------------------------|
B|----------11--12--13-------------11--12--13--12--13------11----------|
G|--11--14-----------------11--14----------------------14------11------|
D|---------------------------------------------------------------------|
A|---------------------------------------------------------------------|
E|---------------------------------------------------------------------|

e|----------14--15--16-------------14--15--16--15--16------14----------|
B|--14--17-----------------14--17----------------------17------14------|
G|---------------------------------------------------------------------|
D|---------------------------------------------------------------------|
A|---------------------------------------------------------------------|
E|---------------------------------------------------------------------|

e|---------------------------------------------------------------------|
B|----------11--12--13-------------11--12--13--12--13------11----------|
G|--11--14-----------------11--14----------------------14--------------|
D|---------------------------------------------------------------------|
A|---------------------------------------------------------------------|
E|---------------------------------------------------------------------|


 [Bridge]

                               (slow slide)
e|-----------------------------------------------------|
B|--fpb14~~~~~r-14~~--\12-14~~-------------\5----------|
G|-----------------------------------------------------|
D|-----------------------------------------------------|
A|-----------------------------------------------------|
E|-----------------------------------------------------|

e|----------14--15--16-------------14--15--16--15--16------14----------|
B|--14--17-----------------14--17----------------------17------14------|
G|---------------------------------------------------------------------|
D|---------------------------------------------------------------------|
A|---------------------------------------------------------------------|
E|---------------------------------------------------------------------|

e|---------------------------------------------------------------------|
B|----------11--12--13-------------11--12--13--12--13------11----------|
G|--11--14-----------------11--14----------------------14--------------|
D|---------------------------------------------------------------------|
A|---------------------------------------------------------------------|
E|---------------------------------------------------------------------|

                               (slow slide)
e|-----------------------------------------------------|
B|--fpb15~~~~~r-14~~--\12-14~~-------------\5----------|
G|-----------------------------------------------------|
D|-----------------------------------------------------|
A|-----------------------------------------------------|
E|-----------------------------------------------------|

e|----------14--15--16-------------14--15--16--15--16------14----------|
B|--14--17-----------------14--17----------------------17------14------|
G|---------------------------------------------------------------------|
D|---------------------------------------------------------------------|
A|---------------------------------------------------------------------|
E|---------------------------------------------------------------------|

e|---------------------------------------------------------------------|
B|----------11--12--13-------------11--12--13--12--13------11----------|
G|--11--14-----------------11--14----------------------14--------------|
D|---------------------------------------------------------------------|
A|---------------------------------------------------------------------|
E|---------------------------------------------------------------------|


 [Outro]

e|------------------------------------------------------9~~--|
B|--9~~------12-12-10--9-9--------9~~------12-12-10--9-------|
G|-----------------------------------------------------------|
D|-----------------------------------------------------------|
A|-----------------------------------------------------------|
E|-----------------------------------------------------------|

e|-----------------------------------------------------------|
B|-----------------------------------------------------------|
G|---------------------------------------------------6~~-----|
D|--6~~------9-9-7--6-6-----------6~~------9-9-7--6----------|
A|-----------------------------------------------------------|
E|-----------------------------------------------------------|



 LOWER KEY version



 [Intro]

e|-------------------------------------------------------------|
B|-------------------------------------------------------------|
G|--6~~------------7~~-----------------------------------------|
D|--------------------------------6~~----------pb6~~------r\5--|
A|-------------------------------------------------------------|
E|-------------------------------------------------------------|

e|--9-10hb--10--------------------------------------------------|
B|-------------fpb12r---12-14--(14)--(14)--(14)--(14)-----------|
G|--------------------------------------------------------------|
D|--------------------------------------------------------------|
A|--------------------------------------------------------------|
E|--------------------------------------------------------------|

e|--------------------------------------------------------------|
B|--19-17-fpb17r---17--fpb14r---17---14--(14)--(14)--(14)--(14)-|
G|--------------------------------------------------------------|
D|--------------------------------------------------------------|
A|--------------------------------------------------------------|
E|--------------------------------------------------------------|


 [Main Riff]

e|--------------------------------------------------------------9--------\--|
B|--10~~------10-9-7-10-9-7-10~~------\-10~~------10-9-7-10-9-7-------------|
G|--------------------------------------------------------------------------|
D|--------------------------------------------------------------------------|
A|--------------------------------------------------------------------------|
E|--------------------------------------------------------------------------|

e|--------------------------------------------------------------------------|
B|--9~~-------9-7-5-9-7-5-9~~---------\-9~~-------9-7-5-9-7-5-9~~--------\--|
G|--------------------------------------------------------------------------|
D|--------------------------------------------------------------------------|
A|--------------------------------------------------------------------------|
E|--------------------------------------------------------------------------|

e|--------------------------------------------------------------------------|
B|--------------------------------------------------------------------------|
G|------------------------------------------------------------6~~--------\--|
D|--7~~-------7-6-4-7-6-4-7~~---------\-7~~-------7-6-4-7-6-4---------------|
A|--------------------------------------------------------------------------|
E|--------------------------------------------------------------------------|

e|--------------------------------------------------------------------------|
B|--------------------------------------------------------------------------|
G|------------------------------------------------------------6~~-----------|
D|--6~~-------6-4-2-6-4-2-6~~---------\-6~~-------6-4-2-6-4-2---------------|
A|--------------------------------------------------------------------------|
E|--------------------------------------------------------------------------|


 [Break]

e|-----------------------------------------------------|
B|--------5--7--8--9--------5--7--8--9--8--9--5--7-----|
G|--6--6-----------------6--------------------------6--|
D|-----------------------------------------------------|
A|-----------------------------------------------------|
E|-----------------------------------------------------|

e|-----------------------------------------------------|
B|-----------------------------------------------------|
G|-----------0--1--------------0--1--0--1--------------|
D|-----2--4--------------2--4--------------2--4--------|
A|--4-----------------4--------------------------4-----|
E|-----------------------------------------------------|

e|-----------------------------------------------------|
B|-----5--7--8--9--------5--7--8--9--8--9--5--7--------|
G|--6-----------------6--------------------------6-----|
D|-----------------------------------------------------|
A|-----------------------------------------------------|
E|-----------------------------------------------------|

e|-----------------------------------------------------|
B|-----------------------------------------------------|
G|-----------0--1--------------0--1--0--1--------------|
D|-----2--4--------------2--4--------------2--4--------|
A|--4-----------------4--------------------------------|
E|-----------------------------------------------------|


 [Bridge]

                                   (slow slide down)
e|-----------------------------------------------------|
B|-----------------------------------------------------|
G|--fpb6~~~~~--r-6~--------\4-6~-----------------------|
D|-----------------------------------------------------|
A|-----------------------------------------------------|
E|-----------------------------------------------------|

e|-----------------------------------------------------|
B|-----5--7--8--9--------5--7--8--9--8--9--5--7--------|
G|--6-----------------6--------------------------6-----|
D|-----------------------------------------------------|
A|-----------------------------------------------------|
E|-----------------------------------------------------|

e|-----------------------------------------------------|
B|-----------------------------------------------------|
G|-----------0--1--------------0--1--0--1--------------|
D|-----2--4--------------2--4--------------2--4--------|
A|--4-----------------4--------------------------------|
E|-----------------------------------------------------|

                                   (slow slide down)
e|-----------------------------------------------------|
B|-----------------------------------------------------|
G|--fpb7~~~~~--r-6~--------\4-6~-----------------------|
D|-----------------------------------------------------|
A|-----------------------------------------------------|
E|-----------------------------------------------------|

e|-----------------------------------------------------|
B|-----5--7--8--9--------5--7--8--9--8--9--5--7--------|
G|--6-----------------6--------------------------6-----|
D|-----------------------------------------------------|
A|-----------------------------------------------------|
E|-----------------------------------------------------|

e|-----------------------------------------------------|
B|-----------------------------------------------------|
G|-----------0--1--------------0--1--0--1--------------|
D|-----2--4--------------2--4--------------2--4--------|
A|--4-----------------4--------------------------------|
E|-----------------------------------------------------|


 [Outro]

e|-----------------------------------------------------|
B|-----------------------------------------------------|
G|------------------------------------------------6~~--|
D|--6~~------9-9-7--6-6--------6~~------9-9-7--6-------|
A|-----------------------------------------------------|
E|-----------------------------------------------------|

e|-----------------------------------------------------|
B|-----------------------------------------------------|
G|-----------------------------------------------------|
D|-----------------------------------------------------|
A|------------------------------------------------4~~--|
E|--4~~------7-7-5--4-4--------4~~------7-7-5--4-------|





************************************

| (n) Ghost note
| p   Pull-off
| r   Release
| b   Bend
| br  Bend release
| pb  Pre-bend
| pbr Pre-bend release
| /   Slide up
| \   Slide down
| ~   Vibrato

************************************

            
            
Suggest correction
Creating personal tab
Creating personal tab
You can edit any tab online and save it as your Personal.

You can edit, replace or remove any tab part or add personal notes – all changes will be seen only by you.

Personal tabs can be accessed anytime from any device, even offline.
Learn more »
Give kudos to tab author, rate the tab!
1 2 3 4 5
comments
print report bad tab
guest
You may want to rate the tab now too:
select rating
Wanna post a correction for this tab? Suggest correction