Oops, an error
Loading. Please wait.

Silent Hill - Youre Not Here guitar pro

10,387 views 1 this week
4 commentsread comments
1 2 3 4 5
x 11
add to favorites
guitar tuner
Autoscroll
slow
fast
+/-
esc
set tempo
stop
File Format
Filesize
Instruments
.gp4
31 Kb
basses #2, percussions
"Silent Hill - Youre Not Here"
demo version
Play now

or get full version for Free

×
Get full version now!
Learn and play this song
in Tab Pro
Try for free

or get $10 off Welcome Bonus

Get welcome bonus
Get access to Tab Pro version of “Silent Hill - Youre Not Here”!
Tab Pro is a premium guitar tab service, available on PC, Mac, iOS and Android
TRY FOR FREE
Your download will start in 7 seconds
×
Like this song? We have more! Follow us on Facebook for daily tips, lessons and other guitar-related content.
To download “Silent Hill - Youre Not Here” Guitar Pro tab click button below
Please note that you must have Guitar Pro software installed on your
computer in order to view this file.
Suggest correction
comments
report bad tab
4 comments total. Showing first comments.
+1 reply
Alpha_Wolf 268 Apr 30, 2011 09:58 PM

Such a great tune.

0 reply
Link089 83 Jul 21, 2012 03:29 PM

At the chorus, I think that's :

|-------------3------1---------0-|
|---1-0-1---0--0---2---2-0-2-3---|
|-2-------0------3---------------|
|--------------------------------|
|--------------------------------|
|--------------------------------|

|-------------3------1-------0---|
|---1-0-1---0--0---2---2---1---1-|
|-2-------0------3-------2-------|
|--------------------------------|
|--------------------------------|
|--------------------------------|

0 reply
Link089 83 Jul 21, 2012 03:35 PM

Sorry it's :

|-------------3-----------------0-|
|---1-0-1---0---0-----1-------3---|
|-2-------0---------2---2-0-2-----|
|-----------------3---------------|
|---------------------------------|
|---------------------------------|

|-------------3-------------------|
|---1-0-1---0---0-----1-------0---|
|-2-------0---------2---2---1---2-|
|-----------------3-------2-------|
|---------------------------------|
|---------------------------------|

guest