Oops, an error
Loading. Please wait.

Skyrim - Ragnar The Red tab

version 2
version 2

Whole song

  • Version: https://www.youtube.com/watch?v=CU0M78oB0... Show more
  • A simplified version of the song. Tab based on the... Show more
388 views 12 this week
1 commentread comment
1 2 3 4 5
x 3
add to favorites
×
Save as Personal and add changes to this tab that will be seen only by you. Learn more ›
×
You can save this tab as Personal to edit and correct it or add notes. All changes will be seen only by you. Learn more »
launch autoscroll
font size
0
reset
how to read this tab
guitar tuner
edit
Autoscroll
slow
fast
+/-
esc
set tempo
stop
Author
Difficulty


    E            B            C#m          G#
e|----------------------------------------------------|
B|--------0------------4------------5-----------------|
G|------1---1--------4---4--------6---6-----------6---|
D|----2-------2----4-------4----6-------6------5--5---|
A|--2------------2------------4--------------5----5---|
E|-----------------------------------------4----------|


    A            E            B            F# 
e|----------------------------------------------------|
B|--------2------------0------------4-----------------|
G|------2---2--------1---1--------4---4-----------3---|
D|----2-------2----2-------2----4-------4------4--4---|
A|--0------------2------------2--------------4----4---|
E|-----------------------------------------2----------|


    G            D            Bm           F#
e|----------------------------------------------------|
B|---------------------7------------3-----------------|
G|--------4----------7---7--------4---4-----------3---|
D|------5---5------7-------7----4-------4------4--4---|
A|----5-------5--5------------2--------------4----4---|
E|--3--------------------------------------2----------|


    G            D            Bm           F#
e|----------------------------------------------------|
B|---------------------7------------3-----------------|
G|--------4----------7---7--------4---4-----------3---|
D|------5---5------7-------7----4-------4------4--4---|
A|----5-------5--5------------2--------------4----4---|
E|--3--------------------------------------2----------|


    E            B            C#m          G#
e|----------------------------------------------------|
B|--------0------------4------------5-----------------|
G|------1---1--------4---4--------6---6-----------6---|
D|----2-------2----4-------4----6-------6------5--5---|
A|--2------------2------------4--------------5----5---|
E|-----------------------------------------4----------|


    A            E
e|--------------------------|
B|--------2-------------0---|
G|------2---2--------1--1---|
D|----2-------2----2----2---|
A|--0------------2----------|
E|--------------------------|


    A     B     E
e|-------------------------|
B|--2-----4------------0---|
G|--2-----4---------1--1---|
D|--2-----4-------2----2---|
A|--0-----2-----2----------|
E|-------------------------|

Suggest correction
Creating personal tab
Creating personal tab
You can edit any tab online and save it as your Personal.

You can edit, replace or remove any tab part or add personal notes – all changes will be seen only by you.

Personal tabs can be accessed anytime from any device, even offline.
Learn more »
Give kudos to tab author, rate the tab!
1 2 3 4 5
comments
print report bad tab
1 comment total.
0 reply
youcanttell7 10 Feb 10, 2017 02:02 PM

Great tab, that other one was a bit difficult :D

guest
You may want to rate the tab now too:
select rating
Wanna post a correction for this tab? Suggest correction