Oops, an error
Loading. Please wait.

Sonic Adventure - It Doesnt Matter tab

version 1
version 1

Whole song

2,937 views 3 this week
no commentswrite comment
1 2 3 4 5
2 more votes to show rating
add to favorites
×
Save as Personal and add changes to this tab that will be seen only by you. Learn more ›
×
You can save this tab as Personal to edit and correct it or add notes. All changes will be seen only by you. Learn more »
launch autoscroll
font size
0
reset
how to read this tab
guitar tuner
edit
Autoscroll
slow
fast
+/-
esc
set tempo
stop
This is the Sonic theme played in Sonic Adventure 2: Battle by Crush 40, not the old 
I couldnt get the whole song, its pretty complicated so this is what its pretty much based 
You could figure out the parts of the song i didnt tab using these. I couldnt get
the solo either, its too fast an im only 12.

Intro: b/g

E|----------------------------------------|
B|----------------------------------------|
G|--66666666-----------777777777777777777-|
D|--66666666-333333333-777777777777777777-|
A|--44444444-333333333-555555555555555555-|
E|-----------111111111--------------------|

E|----------------------------------------|
B|----------------------------------------|
G|--66666666-----------666666666666666666-|
D|--66666666-333333333-666666666666666666-|
A|--44444444-333333333-444444444444444444-|
E|-----------111111111--------------------|
                                           x2
E|-------------------------------------------|
B|-------------------------------------------|
G|-777777777777777777777777---99-77-66-7-999-|
D|-777777777777777777777777---99-77-66-7-999-|
A|-555555555555555555555555---77-55-44-5-777-|
E|-------------------------------------------|

Verse

E|------------------------------------|
B|------------------------------------|
G|------------------------------------|
D|-7777777777777777-2222222222222222--|
A|-7777777777777777-2222222222222222--|
E|-5555555555555555-0000000000000000--|
    ................ ...............

E|-------------------------------------------|
B|-------------------------------------------|
G|--7777777777777777--666666--7777777--------|
D|--7777777777777777--666666--7777777--------|
A|--5555555555555555- 444444--5555555--------|
E|-------------------------------------------|
     ...............
E|-------------------------------------|
B|-------------------------------------|
G|-------------------------------------|
D|-7777777777777777-2222222222222222---|
A|-7777777777777777-2222222222222222---|
E|-5555555555555555-0000000000000000---|
    ...............  ...............

E|------------------------------------------|
B|------------------------------------------|
G|-7777777777777777--6-7-999----------------|
D|-7777777777777777--6-7-999----------------|
A|-5555555555555555--4-5-777----------------|
E|------------------------------------------|
    ...............
Prechorus

E|-----------------------------------------|
B|-----------------------------------------|
G|-7777777777777777777777777-666666-444444-|
D|-7777777777777777777777777-666666-444444-| x3
A|-5555555555555555555555555-444444-222222-|
E|-----------------------------------------|

E|-----------------------------------------|
B|-----------------------------------------|
G|-4444444444444-66-77-999999999999999-----|
D|-4444444444444-66-77-999999999999999-----|
A|-2222222222222-44-55-777777777777777-----|
E|-----------------------------------------|

Chorus:

E|--------------------------------------------|
B|--------------------------------------------|
G|-77777777777777777-2222222222222222---------|
D|-77777777777777777-2222222222222222---------|
A|-55555555555555555-0000000000000000---------|
E|--------------------------------------------|

E|--------------------------------------------|
B|--------------------------------------------|
G|-4444444444444444--7-9----------------------|
D|-4444444444444444--7-9----------------------|
A|-2222222222222222--5-7----------------------|
E|--------------------------------------------|

This is when he goes: Long as the voice inside..
E|-------------------------------------------|
B|-------------------------------------------|
G|-77777777777777777-2222222222222222--------|
D|-77777777777777777-2222222222222222--------|
A|-55555555555555555-0000000000000000--------|
E|-------------------------------------------|

E|-------------------------------------------|
B|-------------------------------------------|
G|4444444444444444--6666666666666666---------|
D|4444444444444444--6666666666666666---------|
A|2222222222222222--4444444444444444---------|
E|-------------------------------------------|

This is when he goes: Long as the voice inside..

E|---------------------------------|
B|-7~---5~---3~---2~---0~----------|
G|---------------------------------|
D|---------------------------------|
A|---------------------------------|
E|---------------------------------|

Thats all i could tab, i couldve tabbed the whole song but i know people hate super long 
that are hard to follow. Corrections? Let me know what you think, pinoy_rockerdude@hotmail.com

            
            
Suggest correction
Creating personal tab
Creating personal tab
You can edit any tab online and save it as your Personal.

You can edit, replace or remove any tab part or add personal notes – all changes will be seen only by you.

Personal tabs can be accessed anytime from any device, even offline.
Learn more »
Give kudos to tab author, rate the tab!
1 2 3 4 5
comments
print report bad tab
guest
You may want to rate the tab now too:
select rating
Wanna post a correction for this tab? Suggest correction