Oops, an error
Loading. Please wait.

Sonic Adventure 2 - Live And Learn tab

version 2
version 2

Whole song

Interactive

14,658 views 30 this week
5 commentsread comments
1 2 3 4 5
x 8
add to favorites
×
Save as Personal and add changes to this tab that will be seen only by you. Learn more ›
×
You can save this tab as Personal to edit and correct it or add notes. All changes will be seen only by you. Learn more »
launch autoscroll
font size
0
reset
how to read this tab
guitar tuner
edit
Autoscroll
slow
fast
+/-
esc
set tempo
stop
Author
-------------------------------------------------------------------------------
			          LIVE AND LEARN - Jun Senoue
-------------------------------------------------------------------------------
Tabbed by: ygokazuki
Email: ygokazuki@gmail.com

Tuning: Standard (E A D G B e)

Intro pt. 1
e|----------------------------------------------------------|
B|----------------------------------------------------------|
G|-6-6--9--9/11---------9--9/11--------9--9/11---13-12-11-9-|
D|-6-6--9--9/11---------9--9/11---2-2--9--9/11---13-12-11-9-|
A|-4-4--7--7/-9---0--0--7--7/-9---2-2--7--7/-9---11-10--9-7-|
E|--------------------------------0-0-----------------------|
pm X X				  X X

Intro pt. 2 (* = pinch harmonics, one octave up)
e|--------------------------|
B|--------------------------|
G|-----*-----*-----*---*-*--|
D|-----9-----9-----9---9/11-|
A|--------------------------|
E|-9-9---9-9---9-9---9------|
pm X X   X X   X X   X

First Verse pt. 1
Lead
e|--------------------------------------------------------------|
B|--------------------------------------------------------------|
G|--------------------------------------------------------2-2p1-|
D|--------------------------------------------------------------|
A|--------------------------------------------------------------|
E|--------------------------------------------------------------|
Rhythm
e|--------------------------------------------------------------|
B|--------------------------------------------------------------|
G|-----6-----6-----6-----6-----6------2-----2-----2-----2-----2-|
D|-6-6-6-6-6-6-6-6-6-6-6-6-6-6-6--2-2-2-2-2-2-2-2-2-2-2-2-2-2-2-|
A|-4-4-4-4-4-4-4-4-4-4-4-4-4-4-4--0-0-0-0-0-0-0-0-0-0-0-0-0-0-0-|
E|--------------------------------------------------------------|
pm X X   X X   X X   X X   X X    X X   X X   X X   X X   X X

First Verse pt. 1 ctd.
Lead
e|-------------------------------|
B|-------------------------------|
G|-------------------------2-2p1-|
D|-------------------------------|
A|-------------------------------|
E|-------------------------------|
Rhythm
e|-------------------------------|
B|-------------------------------|
G|-------------------------------|
D|-----2-----2-----2-----2-----2-|
A|-2-2-2-2-2-2-2-2-2-2-2-2-2-2-2-|
E|-0-0-0-0-0-0-0-0-0-0-0-0-0-0-0-|
pm X X   X X   X X   X X   X X

First Verse pt. 2 (the second time, both guitars play this)
e|-------------------|
B|-------------------|
G|-------------------|
D|-4/6--4/6--6-5-4-2-|
A|-4/6--4/6--6-5-4-2-|
E|-2/4--2/4--4-3-2-0-|

First Verse pt. 3 (both guitars)
e|--------------------|
B|--------------------|
G|--------------------|
D|-4/6--4/6--6-4-5-6/-|
A|-4/6--4/6--6-4-5-6/-|
E|-2/4--2/4--4-2-3-4/-|

First Pre-Chorus pt. 1 (two guitars)
Lead
e|---------------------------------------------------|
B|---------------------------------------------------|
G|-2:---------------4:---------------6:--------------|
D|-2:---------------4:---------------6:--------------|
A|-0:---------------2:---------------4:--------------|
E|---------------------------------------------------|
Rhythm
e|---------------------------------------------------|
B|---------------------------------------------------|
G|-----2-----2---2------4-----4---4------6-----6---6-|
D|-2-2-2-2-2-2-2-2--4-4-4-4-4-4-4-4--6-6-6-6-6-6-6-6-|
A|-0-0-0-0-0-0-0-0--2-2-2-2-2-2-2-2--4-4-4-4-4-4-4-4-|
E|---------------------------------------------------|
pm X X   X X   X    X X   X X	X	 X X   X X   X

First Pre-Chorus pt. 2
Lead (you can play this in octaves as shown, or use only the bottom notes)
e|---------------|
B|---------------|
G|----------2--4-|
D|-2-2-4-6--x--x-|
A|-x-x-x-x--0--2-|
E|-0-0-2-4-------|
Rhythm
e|---------------|
B|---------------|
G|---------------|
D|-2---4-6:------|
A|-2---4-6:------|
E|-0---2-4:------|

First Pre-Chorus pt. 3 (lead and rhythm guitar both play this)
(you can play this in octaves as shown, or use powerchords)
e|----------|
B|----------|
G|-5---7-9\-|
D|-x---x-x\-|
A|-3---5-7\-|
E|----------|

First Pre-Chorus pt. 4 (lead and rhythm guitar both play this)
e|------------------------------------------------------------|
B|------------------------------------------------------------|
G|-----2-----2---2-----2-----2---2-----5-----5---5----5-5-7-7-|
D|-2-2-2-2-2-2-2-2-2-2-2-2-2-2-2-2-5-5-5-5-5-5-5-5-5--5-5-7-7-|
A|-0-0-0-0-0-0-0-0-0-0-0-0-0-0-0-0-3-3-3-3-3-3-3-3-3--3-3-5-5-|
E|------------------------------------------------------------|
pm X X   X X   X   X X   X X   X   X X   X X   X   X  

First Pre-Chorus pt. 5 (lead guitar only) 
(* = pinch harmonics, two different pitches)
e|-9--9-|
B|-*--*-|
G|------|
D|------|
A|------|
E|------|

Chorus (rhythm and lead guitars alternate rhythm figures and riffs)
  |-Rhythm Guitar-| |---------Lead Guitar---------|
e|---------------------------------------------------|
B|---------------------------------------------------|
G|-6-6--9--9/11------------4--4---------4-3----------|
D|-6-6--9--9/11--7:----4-6------7-6----------4-------|
A|-4-4--7--7/-9--7:-------------------4--------4-6---|
E|---------------5:--4--------------2----------------|

Chorus ctd.
  |-Rhythm Guitar-| |-Lead Guitar-| |---both---|
e|-----------------------------------------------|
B|-----------------------------------------------|
G|-6-6--9--9/11------------4--4-6-4--5--5--6--8\-|
D|-6-6--9--9/11--7:----4-6-----------5--5--6--8\-|
A|-4-4--7--7/-9--7:------------------3--3--4--6\-|
E|---------------5:--4---------------------------|

Post-Chorus
e|----------------------------------------------|
B|----------------------------------------------|
G|-9-6--4-6-4--2-2:--4-4:-----------------------|
D|-9-6--4-6-4--2-2:--4-4:--4/-------------------|
A|-7-4--2-4-2--0-0:--2-2:--4/(random glissando)-|
E|-------------------------2/-------------------|

Pre-Verse (parentheses = pinch harmonics up one octave)
e|-----------------------------------------|
B|-----------------------------------------|
G|-----------------------------------------|
D|----(9/11)---(13/14)---(9/11)---(13b(14))|
A|-----------------------------------------|
E|-9-9------9-9-------9-9------9-9---------|

Second Verse pt. 1
Lead
e|--------------------------------------------------------------|
B|--------------------------------------------------------------|
G|--------------------------------------------------------2-2p1-|
D|--------------------------------------------------------------|
A|--------------------------------------------------------------|
E|--------------------------------------------------------------|
Clean Lead Fills (with reverb)
e|-------------------7:-----------------------------7:----------|
B|-----------------5------------------------------5-------------|
G|---------------6----------------------------------------------|
D|----------------------------------------------7---------------|
A|--------------------------------------------------------------|
E|--------------------------------------------------------------|
Rhythm
e|--------------------------------------------------------------|
B|--------------------------------------------------------------|
G|-----6-----6-----6-----6-----6------2-----2-----2-----2-----2-|
D|-6-6-6-6-6-6-6-6-6-6-6-6-6-6-6--2-2-2-2-2-2-2-2-2-2-2-2-2-2-2-|
A|-4-4-4-4-4-4-4-4-4-4-4-4-4-4-4--0-0-0-0-0-0-0-0-0-0-0-0-0-0-0-|
E|--------------------------------------------------------------|
pm X X   X X   X X   X X   X X    X X   X X   X X   X X   X X

Second Verse pt. 1 ctd.
Lead
e|-------------------------------|
B|-------------------------------|
G|-------------------------2-2p1-|
D|-------------------------------|
A|-------------------------------|
E|-------------------------------|
Clean Lead Fills (with reverb)
e|-------------------7:----------|
B|-----------------5-------------|
G|---------------6---------------|
D|-------------------------------|
A|-------------------------------|
E|-------------------------------|
Rhythm
e|-------------------------------|
B|-------------------------------|
G|-------------------------------|
D|-----2-----2-----2-----2-----2-|
A|-2-2-2-2-2-2-2-2-2-2-2-2-2-2-2-|
E|-0-0-0-0-0-0-0-0-0-0-0-0-0-0-0-|
pm X X   X X   X X   X X   X X

Second Verse pt. 2
Clean Lead Fills (with reverb)
e|-----5:---4\--|
B|---5----------|
G|-4------------|
D|--------------|
A|--------------|
E|--------------|
Lead and Rhythm
e|--------------|
B|--------------|
G|--------------|
D|-4/6--4/6--6:-|
A|-4/6--4/6--6:-|
E|-2/4--2/4--4:-|

Second Pre-Chorus pt. 1
Overdriven Lead Fills
e|---------------------------------------------------|
B|---------------------------------------------------|
G|--8\2~------------9\4~-------------11\6~-----------|
D|---------------------------------------------------|
A|---------------------------------------------------|
E|---------------------------------------------------|
Lead
e|---------------------------------------------------|
B|---------------------------------------------------|
G|-2:---------------4:---------------6:--------------|
D|-2:---------------4:---------------6:--------------|
A|-0:---------------2:---------------4:--------------|
E|---------------------------------------------------|
Rhythm
e|---------------------------------------------------|
B|---------------------------------------------------|
G|-----2-----2---2------4-----4---4------6-----6---6-|
D|-2-2-2-2-2-2-2-2--4-4-4-4-4-4-4-4--6-6-6-6-6-6-6-6-|
A|-0-0-0-0-0-0-0-0--2-2-2-2-2-2-2-2--4-4-4-4-4-4-4-4-|
E|---------------------------------------------------|
pm X X   X X   X    X X   X X	X	 X X   X X   X

Second Pre-Chorus pt. 2
Overdriven Lead Fills
e|---------------|
B|---------------|
G|-8~:-----------|
D|---------------|
A|---------------|
E|---------------|
Lead (you can play this in octaves as shown, or use only the bottom notes)
e|---------------|
B|---------------|
G|----------2--4-|
D|-2-2-4-6--x--x-|
A|-x-x-x-x--0--2-|
E|-0-0-2-4-------|
Rhythm
e|---------------|
B|---------------|
G|---------------|
D|-2---4-6:------|
A|-2---4-6:------|
E|-0---2-4:------|

Second Pre-Chorus pt. 3
Overdriven Lead Fills
e|----------|
B|----------|
G|-8~:------|
D|----------|
A|----------|
E|----------|
Lead and Rhythm
(you can play this in octaves as shown, or use powerchords)
e|----------|
B|----------|
G|-5---7-9\-|
D|-x---x-x\-|
A|-3---5-7\-|
E|----------|

Second Pre-Chorus pt. 4
Overdriven Lead Fills
e|------------------------------------------------------------|
B|------------------------------------------------------------|
G|-6\2~----------------------------8\4~-----------------------|
D|------------------------------------------------------------|
A|------------------------------------------------------------|
E|------------------------------------------------------------|
Lead and Rhythm
e|------------------------------------------------------------|
B|------------------------------------------------------------|
G|-----2-----2---2-----2-----2---2-----5-----5---5----5-5-7-7-|
D|-2-2-2-2-2-2-2-2-2-2-2-2-2-2-2-2-5-5-5-5-5-5-5-5-5--5-5-7-7-|
A|-0-0-0-0-0-0-0-0-0-0-0-0-0-0-0-0-3-3-3-3-3-3-3-3-3--3-3-5-5-|
E|------------------------------------------------------------|
pm X X   X X   X   X X   X X   X   X X   X X   X   X

Second Pre-Chorus pt. 5 
e|-6b(7)-6b(7)-6b(7)-6b(7)-|
B|-------------------------|
G|-------------------------|
D|-------------------------|
A|-------------------------|
E|-------------------------|

(now there's a guitar solo...which I have no idea how to play)

Third Pre-Chorus (still MORE lead fills...)
Overdriven Lead Fills
e|---------------------------------------------------|
B|---------------------------------------------------|
G|-----------------------------------------------5:--|
D|---------------------------------------------------|
A|---------------------------------------------------|
E|---------------------------------------------------|
Lead
e|---------------------------------------------------|
B|---------------------------------------------------|
G|-2:---------------4:---------------6:--------------|
D|-2:---------------4:---------------6:--------------|
A|-0:---------------2:---------------4:--------------|
E|---------------------------------------------------|
Rhythm
e|---------------------------------------------------|
B|---------------------------------------------------|
G|-----2-----2---2------4-----4---4------6-----6---6-|
D|-2-2-2-2-2-2-2-2--4-4-4-4-4-4-4-4--6-6-6-6-6-6-6-6-|
A|-0-0-0-0-0-0-0-0--2-2-2-2-2-2-2-2--4-4-4-4-4-4-4-4-|
E|---------------------------------------------------|
pm X X   X X   X    X X   X X   X    X X   X X   X

Third Pre-Chorus pt. 2
Overdriven Lead Fills
e|---------------|
B|---------------|
G|-7~:-----------|
D|---------------|
A|---------------|
E|---------------|
Lead (you can play this in octaves as shown, or use only the bottom notes)
e|---------------|
B|---------------|
G|----------2--4-|
D|-2-2-4-6--x--x-|
A|-x-x-x-x--0--2-|
E|-0-0-2-4-------|
Rhythm
e|---------------|
B|---------------|
G|---------------|
D|-2---4-6:------|
A|-2---4-6:------|
E|-0---2-4:------|

Third Pre-Chorus pt. 3
Overdriven Lead Fills
e|-----------------------------------19b(20)-19b(20)-|
B|---------------------------------------------------|
G|---------------------------------------------------|
D|---------------------------------------------------|
A|---------------------------------------------------|
E|---------------------------------------------------|
Lead
e|---------------------------------------------------|
B|---------------------------------------------------|
G|-2:---------------4:---------------6:--------------|
D|-2:---------------4:---------------6:--------------|
A|-0:---------------2:---------------4:--------------|
E|---------------------------------------------------|
Rhythm
e|---------------------------------------------------|
B|---------------------------------------------------|
G|-----2-----2---2------4-----4---4------6-----6---6-|
D|-2-2-2-2-2-2-2-2--4-4-4-4-4-4-4-4--6-6-6-6-6-6-6-6-|
A|-0-0-0-0-0-0-0-0--2-2-2-2-2-2-2-2--4-4-4-4-4-4-4-4-|
E|---------------------------------------------------|
pm X X   X X   X    X X   X X   X    X X   X X   X

Third Pre-Chorus pt. 4 (lead and rhythm guitar both play this)
e|------------------------------------------------------------|
B|------------------------------------------------------------|
G|-----2-----2---2-----2-----2---2-----5-----5---5----5-5-7-7-|
D|-2-2-2-2-2-2-2-2-2-2-2-2-2-2-2-2-5-5-5-5-5-5-5-5-5--5-5-7-7-|
A|-0-0-0-0-0-0-0-0-0-0-0-0-0-0-0-0-3-3-3-3-3-3-3-3-3--3-3-5-5-|
E|------------------------------------------------------------|

Third Pre-Chorus pt. 5
e|-8---8---6---6---|
B|---8---8---6---6-|
G|-----------------|
D|-----------------|
A|-----------------|
E|-----------------|

Out-Chorus
e|-----------------------------------------------|
B|-----------------------------------------------|
G|----------6-6--9--9/11-----------------1-2-4-2-|
D|-sc-------6-6--9--9/11--7----------2-4---------|
A|----ra----4-4--7--7/-9--7------2-4-------------|
E|-------pe---------------5--2-4-----------------|

e|--------------------------------------|
B|--------------------------------------|
G|-6-6--9--9/11-----------------1-2-4-6-|
D|-6-6--9--9/11--7----------2-4---------|
A|-4-4--7--7/-9--7------2-4-------------|
E|---------------5--2-4-----------------|

Outro
(* = pinch harmonics, 1 octave up)
e|-----------------------------------------|
B|-----------------------------------------|
G|-----*-----*-----*---*-*-----------------|
D|-----9-----9-----9---9/11----------2-4---|
A|-------------------------------2-4-----4-|
E|-9-9---9-9---9-9---9-------2-4-----------|

Now for the order.  Let me tell you, this is a rather complex song!
Intro pt. 1 (x2)
Intro pt. 2

First Verse pt. 1 (rhythm only)
First Verse pt. 2 (rhythm only)
First Verse pt. 1
First Verse pt. 3

First Pre-Chorus pt. 1
First Pre-Chorus pt. 2
First Pre-Chorus pt. 1
First Pre-Chorus pt. 3
First Pre-Chorus pt. 1
First Pre-Chorus pt. 2
First Pre-Chorus pt. 4
First Pre-Chorus pt. 5

Chorus (x2)

Post-Chorus

Pre-Verse

Second Verse pt. 1
Second Verse pt. 2

Second Pre-Chorus pt. 1
Second Pre-Chorus pt. 2
Second Pre-Chorus pt. 1
Second Pre-Chorus pt. 3
Second Pre-Chorus pt. 1
Second Pre-Chorus pt. 2
Second Pre-Chorus pt. 4
Second Pre-Chorus pt. 5

Chorus (x2)

Post-Chorus

(now the solo...which I don't know how to play)

Third Pre-Chorus pt. 1
Third Pre-Chorus pt. 2
Third Pre-Chorus pt. 1
Third Pre-Chorus pt. 3
Third Pre-Chorus pt. 1
Third Pre-Chorus pt. 2
Third Pre-Chorus pt. 4
Third Pre-Chorus pt. 5

Chorus (x2)

Out-Chorus (x2)

Intro pt. 1 (x2)

Outro

Enjoy!

| /  slide up
| \  slide down
| h  hammer-on
| p  pull-off
| ~  vibrato
| +  harmonic
| x  Mute note
===============================================================================

            
            
Suggest correction
Creating personal tab
Creating personal tab
You can edit any tab online and save it as your Personal.

You can edit, replace or remove any tab part or add personal notes – all changes will be seen only by you.

Personal tabs can be accessed anytime from any device, even offline.
Learn more »
comments
print report bad tab
5 comments total. Showing first comments.
0 reply
ygokazuki 353 Sep 01, 2005 08:00 PM

W00t! Best tab ever! Yeah!

0 reply
J_J_Kool 227 Jan 03, 2007 04:48 AM

yeha i want a bass tab so i can play along, i can pick out bits of the line, but im not too good at listening, i end up singing along to it!

+2 reply
aiden4140 65 Feb 27, 2007 10:28 AM

if you go on juns website he has submitted the actual tab (well a small part of it).
the intro goes like...
---------------------------
---5-5/7----5-5/7---5-5/7--
---4-4/6----4-4/6---4-4/6--
---------------------------6--5--4--2
-44-4-----00-0-------------6--5--4--2
------------------00-0-----4--3--2--0

your intro sounds pretty much perfect as well though

guest
You may want to rate the tab now too:
select rating
Wanna post a correction for this tab? Suggest correction