Oops, an error
Loading. Please wait.

Sonic Adventure 2 - Lovely Gate 3 For Egg Quarters bass

16 views 1 this week
no commentswrite comment
1 2 3 4 5
3 more votes to show rating
add to favorites
×
Save as Personal and add changes to this tab that will be seen only by you. Learn more ›
×
You can save this tab as Personal to edit and correct it or add notes. All changes will be seen only by you. Learn more »
launch autoscroll
font size
0
reset
guitar tuner
edit
Autoscroll
slow
fast
+/-
esc
set tempo
stop
Author
Difficulty
About this tab version
Lots of stuff here. Some patterns repeat throughout the song, but with quite a few variations. Mind the timing. Was this info helpful? Yes No
Lovely Gate 3 (Egg Quarters)
Sonic Adventure 2

[Intro] 
G|-----------------|    |-----------------|
D|-----------------|    |-----------------|
A|--------------/6-| x3 |-----------------|
E|-1--4--1---4-----|    |-1--4--1---4-----|

G|-----------------|    |-----------|
D|-----------------|    |------10\--|
A|--------------/6-| x3 |-----------|
E|-1--4--1---4-----|    |-----------|

[Verse]
G|-------------------------------------------------------------------------|
D|-----------3--------------------------------------3-------------------/8-|
A|---------6----6--6--------------------/6--------6-------/6---------------|
E|-4-1--4------------4--1--4--1----4--4-----1--4-------4------1--4--1------|

G|---------------------------------------------------------------/11\-|
D|-----------3-----------------------------------3---------------/11\-|
A|-1-------6----6----------------------6-------6-------/6-------------|
E|--01--4----------4--1--4--1----4h5p4---1--4-------4------2----------|

[Chorus]
G|---------------------------------------------------------------------|
D|-------------------------------------7-------6-----------------------|
A|-----3-3---------6---4-------------------7-------5---4-------3-------|
E|-1---------7-4-----------4---1---6-----------------------4-------2---|

G|-----------------------------------------------------------------|
D|-3-------------------6---8-------7-------6-----------6-----------|
A|-----3-------6---4-----------8-------7-------5---4-------3-------|
E|-------5-4---------------------------------------------------2---|

G|------------------------------------------------------------------------|
D|-----3---------------------------8-7-------6-------------------79-6-----|
A|--------------6---4------------8-------6-------5---4-------3-----7--78--|
E|-1-------44-----------4---66---------------------------4----------------|

G|-------------------------------------------------------------|
D|-----------------------------7-------6-----------------------|
A|-3-------6---4-----------8-------6-------5---4-------3-------|
E|---3-4-----------4---6---------------------------4-------2---|

G|-----------------------------------------------------------------|
D|-----3---------------6---8-------7-------6-----------6-----------|
A|-------0-----6---4-----------8-------6-------5---4-------4-3-----|
E|-1-------4-----------------------------------------------------2-|

[2nd verse]
G|--------------------------------------------------------------------5-|
D|----------3----------------------------------4------------------------|
A|--------6----6-------------------/6--------6-------/6-----------------|
E|--1--4----------4--1--4--1----4------1--4-------4------1--4--1--------|

G|------------------------------------------------------------------|
D|----------3----------------------------------4--------------------|
A|--------6----6-------------------/6--------6-------/6-------------|
E|--1--4----------4--1--4--1---4-------1--4-------4------1----------|

[Bridge]
G|--------------/9\-------13\-------10\----------------|
D|--------------/9\------------------------------------|
A|-----------------------------------------3-3---3-3---|
E|-----------------------------------------------------|

[2nd intro] 
G|-----------------|    |-----------------|
D|-----------------|    |-----------------|
A|--------------/6-| x3 |-----------------|
E|-1--4--1---4-----|    |-1--4--1---4-----|

G|-----------------|    |------9\--|
D|-----------------|    |----------|
A|--------------/6-| x3 |----------|
E|-1--4--1---4-----|    |----------|

[3rd verse]
G|----------------------------------------------------------------------|
D|---------3---------------------------------3--------------------------|
A|-------6----6-------------------/6-------6-------/6-------------------|
E|-1--4----------4--1--4--1----4-----1--4-------44------1--4--1---2b3---|

G|------------------------------------------------------------10p8---|
D|---------3---------------------------------3-----------------------|
A|-------6----6-------------------/6-------6-------/6----------------|
E|-1--4----------4--1--4--1----4-----1--4-------4------2-------------|

[2nd chorus]
G|-----------------------------------------------------------------------|
D|-3------------6--------------------7-------6--6--------------------6---|
A|----1------------4-4-----------8-------6--------5---4-------3-----7-78-|
E|------1---4------------3---6----------------------------4--------------|

G|----------------------3-------2-------1--------------------------|
D|---3----------------------3-------1--------------------------6---|
A|-3-------6---4----------------------------5---4-------3-----7-78-|
E|-----4-----------33-------------------------------3--------------|

G|---------------------------------------------------------------------|
D|-----------6---------------------8-7-------6--6------------------6---|
A|-1-------------6-4-----------x-8-------6-------5---4------3-----7-78-|
E|--1---/4-------------4---6-----------------------------33------------|

G|--------------------------------------------------------------|
D|---------------------------8-7-------6---6--------------------|
A|-3-------6---4-----------8-------6--------5---4-------3-------|
E|---3-4-----------4---6----------------------------4-------2---|

G|-----------------------------------------------------------------|
D|-3-------------------6---8-------7-------6-----------------------|
A|-----3-------6---4-----------x-8-----6-------5---4-------3-------|
E|---------4-------------------------------------------3-------2---|

[4th verse]
G|-----------------------------------------------------------------10p8-|
D|---------3---------------------------------3--------------------------|
A|-------6----6-------------------/6-------6-------/6-------------------|
E|-1--4----------4--1--4--1----4-----1--4-------4------1--4--1----------|

G|----------------------------------------------------------/9\---|
D|---------3---------------------------------3--------------/9\---|
A|-------6----6-------------------/6-------6-------/6-------------|
E|-1--4----------4--1--4--1----4-----1--4-------4------2----------|

[2nd bridge]
G|----18p16----------------------10p8--------------------/12\-------------------|
D|------------15p13---------------------11p9---8p6-------/12\-----6\------------|
A|---------------------/8\--------------------------------------------3-3---3-3-|
E|------------------------------------------------------------------------------|


************************************

| / Slide up
| \ Slide down 
| ~ Vibrato
| x Dead note
| b Bend
| h Hammer-on
| p Pull-off

************************************

            
            
Suggest correction
Creating personal tab
Creating personal tab
You can edit any tab online and save it as your Personal.

You can edit, replace or remove any tab part or add personal notes – all changes will be seen only by you.

Personal tabs can be accessed anytime from any device, even offline.
Learn more »
Give kudos to tab author, rate the tab!
1 2 3 4 5
comments
print report bad tab
guest
You may want to rate the tab now too:
select rating
Wanna post a correction for this tab? Suggest correction