Oops, an error
Loading. Please wait.

Sonic Spinball - Toxic Caves bass

version 1
version 1

Whole song

Interactive

1,263 views 6 this week
no commentswrite comment
1 2 3 4 5
3 more votes to show rating
add to favorites
×
Save as Personal and add changes to this tab that will be seen only by you. Learn more ›
×
You can save this tab as Personal to edit and correct it or add notes. All changes will be seen only by you. Learn more »
launch autoscroll
font size
0
reset
guitar tuner
edit
Autoscroll
slow
fast
+/-
esc
set tempo
stop
Author
-------------------------------------------------------------------------------
	               Level 1: Toxic Caves - Sonic Spinball
-------------------------------------------------------------------------------

Tabbed By : Tommy Robin
e-mail: ockeroid@hotmail.com

Tuning: Standard (EADG)

This is the very cool sounding song from the first level of Sonic Spinball for
the Mega Drive/Genesis. I didn't like the game and could never get past this 
level, but it doesn't stop the song being awesome.


Intro
G|----------------|----------------|----------------|----------------|
D|----------------|----------------|----------------|------57p5------|
A|0-12~~~\--------|----------------|0-12~~~\--------|----------765---|
E|----------------|----------------|----------------|-------------85-|
  Hold note then slowly slide down


Main Riff
G|----------------|----------------|----------------|----------------|
D|----75----------|----------------|----75----------|----------------|
A|-------7-6-5----|5---567---------|-------7-6-5----|5~-x567---------|
E|5--5---------85-|-------3-x3-x4--|5~-5---------85-|-------3-x3-x4--|


Tab Key
 ~  Hold note
 \  Slide down
 h  Hammer on
 p  Pull off
 x  Mute/Dead note


Structure
 Intro - x1
 Main Riff x2
 Loop
                                                                     26.12.07
===============================================================================

            
            
Suggest correction
Creating personal tab
Creating personal tab
You can edit any tab online and save it as your Personal.

You can edit, replace or remove any tab part or add personal notes – all changes will be seen only by you.

Personal tabs can be accessed anytime from any device, even offline.
Learn more »
Give kudos to tab author, rate the tab!
1 2 3 4 5
comments
print report bad tab
guest
You may want to rate the tab now too:
select rating
Wanna post a correction for this tab? Suggest correction