Oops, an error
Loading. Please wait.

Sonic The Hedgehog - Green Hill Zone Tab

version 1
version 1

Whole song

Interactive

54,781 views 177 this week
3 commentsread comments
1 2 3 4 5
accurate
x 18
add to favorites
launch autoscroll
font size
0
reset
how to read this tab
guitar tuner
Autoscroll
slow
fast
+/-
esc
set tempo
stop
Help us to improve Ultimate-Guitar.com Take our survey!
×
Author
Difficulty
novice
Disregard the other one. I submitted it without being logged in on accident.


[INTRO]

e:--------------------------------------------------|
B:--------------------------------------------------|
G:-7-5--7-5--7-5---8-7-5----5-7-8--5-7-8--8-7--7-8--|
D:--------------------------------------------------|
A:--------------------------------------------------|
E:--------------------------------------------------|

[MAIN]

e:-9----9-8-9-8--------13-11--9-8-9-8---------------|
B:---11---------9---11----------------9-------------|
G:--------------------------------------------------|
D:--------------------------------------------------|
A:--------------------------------------------------|
E:--------------------------------------------------|

e:-9----9-8-9-8----6-6----6----6--------------------|
B:---11---------9------7----9----9------------------|
G:---------------------------------6----------------|
D:--------------------------------------------------|
A:--------------------------------------------------|
E:--------------------------------------------------|

Repeat main above.

e:--------------------------------------------------|
B:-----6---------6----------------------------------|
G:-6-6---8---6-8---9---6-8-9--6-8-10---66-5-33------|
D:--------------------------------------------------|
A:--------------------------------------------------|
E:--------------------------------------------------|

Start over.
Suggest correction
comments
print report bad tab
3 comments total.
0 reply
bexydevil 10 wrote on December 5 2008, 04:28 pm

its good not sure its in the right key tho ^_^'

0 reply
dashguy7 10 wrote on December 15 2015, 04:58 pm

It is in the wrong key you should try and fix this, try starting on a lower fret for the intro

0 reply
saintassassintv 10 wrote on May 25 2016, 09:06 am

5/25/16

e--------------------------------------------------------
B--------------------------------------------------------
G--------------------------------------------------------
D--9--7--9--7--9-7-10--9--7-----7--9--10--7--9--10--10--9
A--------------------------------------------------------
E--------------------------------------------------------

e--8-5---8-7-8-7---------12-10----8-7-8-7--
B----------------8----10------------------8
G------------------------------------------
D------------------------------------------
A------------------------------------------
E------------------------------------------

e--8-5---8-7-8-7---------5---5-3---5-3-----
B----------------8-----6---6-----------1---
G------------------------------------------
D------------------------------------------
A------------------------------------------
E------------------------------------------

e--8-5---8-7-8-7---------12-10----8-7-8-7-3
B----------------8----10-------------------
G------------------------------------------
D------------------------------------------
A------------------------------------------
E------------------------------------------

e--8-5---8-7-8-7---------5---5-3---5-3-----0-
B----------------8-----6---6-----------1-1--3
G--------------------------------------------
D--------------------------------------------
A--------------------------------------------
E--------------------------------------------

e------0----------------------
B----1-----------5-4-------4-3
G--2---------5-5---------5----
D-----------------------------
A-----------------------------
E-----------------------------

Repeat

guest
You may want to rate the tab now too:
select rating
Wanna post a correction for this tab? Suggest correction