Oops, an error
Loading. Please wait.

Stardew Valley - Nocturne Of Ice Winter tab

799 views 15 this week
no commentswrite comment
1 2 3 4 5
x 5
add to favorites
×
Save as Personal and add changes to this tab that will be seen only by you. Learn more ›
×
You can save this tab as Personal to edit and correct it or add notes. All changes will be seen only by you. Learn more »
launch autoscroll
font size
0
reset
how to read this tab
guitar tuner
edit
Autoscroll
slow
fast
+/-
esc
set tempo
stop
Author
Difficulty
About this tab version
Transcribed straight from the YouTube video, and may differ from the original soundtrack. Regardless, enjoy. Was this info helpful? Yes No
Based off of YouTuber: Josiah McDaniel
https://www.youtube.com/watch?v=Vy4s0VrphkU
--------------------------------------------
Song: Stardew Valley - Nocturne of Ice (Winter)
Artist: ConcernedApe & Chucklefish
Tuning: Standard (EADGBE)
Capo: No Capo
BPM: Lento-Larghetto (45-55)
Time Signature: Common Time (4/4)
--------------------------------------------

[Verse 1]
   E E E E S S S S E E         E E E S T T S S S S E E
e|-------0-------0-----------|-------0-----------0---------|
B|-0-1-3---0-1-3---0---------|-0-1-3---0h1p0-1-3---0-------|
G|-----0-----------0-2-------|-----0---------------0-2-----|
D|---------------------------|-----------------------------|
A|-3-------3-----------------|-3-----------3---------------|
E|---------------------------|-----------------------------|

                                          ^
   E E E E S S S S E E         H          H
e|-------0-------0-----------|------------3----------------|
B|-0-1-3---0-1-3---0---------|------------1----------------|
G|-------------------2-------|-0----------0----------------|
D|-----2-----------2---------|------------2----------------|
A|-0-------0-----------------|-0----------0----------------|
E|---------------------------|-----------------------------|


   E E E E S S S S E E         E E E S T T S S S S E E
e|-------0-------0-----------|-------0-----------0---------|
B|-0-1-3---0-1-3---0---------|-0-1-3---0h1p0-1-3---0-------|
G|-----0-----------0-2-------|-----0---------------0-2-----|
D|---------------------------|-----------------------------|
A|-3-------3-----------------|-3-----------3---------------|
E|---------------------------|-----------------------------|


   E E E E S S S S  S  S S S   S S S S S S S S Q  S S S S
e|-------0-------------5---7-|-8-7-------------------------|
B|---0-3---0-1-3/8-(8)---8---|-----8---1-0-----------------|
G|-2-------------------------|-------7-----0----------0----|
D|-----2---------------------|---------------2------2---0--|
A|-0-------0--------7--------|-8---------------3--3--------|
E|---------------------------|---------1-------1--1--------|

[Verse 2]
   E E E S S S S S S E S S     E E E S S S S S S E S S
e|---------------------------|-----------------------------------|
B|---1-----1-------1-----1---|---1-----0-------0-----0-----------|
G|---------------0-----------|-----0---------0-------------------|
D|-----3-2-----2-----3-2-----|-----3-2-----2-----3-2-------------|
A|-3---3-----3-------3-------|-3---------3-------3---------------|
E|---------------------------|-----------------------------------|


   E E E S S S S S S E S S     S S S S T T S S S S S S S S S S S
e|---------------------------|---------3p0-------0-----------0---|
B|---1-----1-------1-----1---|-------1-----1-----1-1-1-----1-1-1-|
G|-----0---------0---0-------|-----2---------2-----2-2-2-2-2---2-|
D|-----3-2-----2-----3-2-----|---3-------------3-------3-3-------|
A|-0---------0---------------|-----------------------------------|
E|---------------------------|-1-----------------1---------------|

[Verse 1]
   E E E E S S S S E E         E E E S T T S S S S E E
e|-------0-------0-----------|-------0-----------0-----|
B|-0-1-3---0-1-3---0---------|-0-1-3---0h1p0-1-3---0---|
G|-----0-----------0-2-------|-----0---------------0-2-|
D|---------------------------|-------------------------|
A|-3-------3-----------------|-3-----------3-----------|
E|---------------------------|-------------------------|


   E E E E S S S S  S  S S S   S S S S S S S S H
e|-------0-------------5---7-|-8-7---------------------|
B|-0-1-3---0-1-3/8-(8)---8---|-----8---1-0-------------|
G|---------------------------|-------7-----0-----------|
D|-----2---------------------|---------------0---------|
A|-0-------0--------7--------|-8---------------3-------|
E|---------------------------|---------1-------1-------|

[Bridge]
    ^                           ^
    W                           W
e|---------------------------|-------------------------|
B|--1------------------------|--0----------------------|
G|--0------------------------|--0----------------------|
D|--2------------------------|--2----------------------|
A|--3------------------------|--2----------------------|
E|---------------------------|-------------------------|

    ^                           ^
    W                           H       H
e|--3------------------------|-------------------------|
B|--1------------------------|--1-------0--------------|
G|--2------------------------|--0-------0--------------|
D|--3------------------------|--2----------------------|
A|---------------------------|--3----------------------|
E|---------------------------|-------------------------|

[Ending]
           ~                           ~
   E E E E H                   E E E E H
e|-3-0---0-3-----------------|-7-------7---------------|
B|-----3---------------------|---8-7-8-----------------|
G|---------------------------|-------------------------|
D|---------------------------|-------------------------|
A|-3-------------------------|-------------------------|
E|---------------------------|-0-----------------------|


   E E E E Q  Q                S S S S E E E E T T S E
e|-8-5-----------------------|-----------0-3-5-3h5p3---|
B|-----8-6-8-----------------|-0-1-0-1-3-------------3-|
G|------------5--------------|-------------------------|
D|---------------------------|-------------------------|
A|-8-------------------------|-3-----------3-----------|
E|---------------------------|-------------------------|

           ~                           ~
   E E E E H                   E E E E H
e|-3-0---0-3-----------------|-7-------7---------------|
B|-----3---------------------|---8-7-8-----------------|
G|---------------------------|-------------------------|
D|---------------------------|-------------------------|
A|-3-------------------------|-------------------------|
E|---------------------------|-0-----------------------|


   E E E E Q  Q                S S S S E E E E T T S E
e|-8-5-----------------------|-----------0-3-5-3h5p3---|
B|-----8-6-8-----------------|-0-1-0-1-3-------------3-|
G|------------5--------------|---------0-------0-------|
D|---------------------------|-------------------------|
A|-8-------------------------|-3-----------3-----------|
E|---------------------------|-------------------------|

    ^
    W                          +W
e|--0------------------------|-(0)---------------------||
B|--1------------------------|-(1)---------------------||
G|--0------------------------|-(0)---------------------||
D|--2------------------------|-(2)---------------------||
A|--3------------------------|-(3)---------------------||
E|---------------------------|-------------------------||




Duration Legend
---------------
W - whole
H - half
Q - quarter
E - 8th
S - 16th
T - 32nd


Tablature Legend
----------------
h - hammer on
p - pull off
/ -  slide into from below or out of upwards
~ - vibrato
^ - brush up

            
            
Suggest correction
Creating personal tab
Creating personal tab
You can edit any tab online and save it as your Personal.

You can edit, replace or remove any tab part or add personal notes – all changes will be seen only by you.

Personal tabs can be accessed anytime from any device, even offline.
Learn more »
comments
print report bad tab
guest
You may want to rate the tab now too:
select rating
Wanna post a correction for this tab? Suggest correction